Song name
# A B C D E F G H I J K L M N O P Q R S T U V W X Y Z

Search The City - The Rescue tab

Sup guys! this is my first tab so ha im Maxwell Paradis and i do some youtube
 vids and i had a request for some tabs for a cover of this song i did.
 Its a little different from the original but very acoustically friendly!  It
 might be a little tough to catch the strumming then too but you can hear it
the way i played it below! enjoy!

http://www.youtube.com/watch?v=m9aCjlZuYkk

EADGBe
INTRO

e|-------------------------------------------------------------|
B|-------------------------------------------------------------|
G|------------------------------------------------------12-11--|
D|-12----12-----9--9---*h8--8h12----12----12----9--9----9--9---|
A|-10----10-----10-10--10---10------10----10----10-10---10-10--|
E|-8-----8------8--8---8----8-------8-----8-----8--8----8--8---|

e|-------------------------------------------------------------------|
B|-------------------------------------------------------------------|
G|---------11-11-----------11-11---14---14-14-14-14---11-------------|  ALL
D|-14-14---14-14---14-14---14-14---------------------------14---12---|  X2
A|-12-12---12-12---12-12---12-12---12---12-12-12-12---12---12---12---|
E|-10-10---10-10---10-10---10-10---10---10-10-10-10---10---10---10---|

2nd time strum these two chords once a piece after
     1     2
e
B
G
D   12    9
A   10    10
E   8     8


FUNKY CHORDS OR SOMETHING

     G*    F#*     E*    C*     D*       B*     E2*    F#2*     G2*
e|----------------------------------------------------------------
B|
G|
D|  12     11      9     4      4        4      4                4
D|  12     12      9     5      5        5      5       7        5
A|  10     9       7     3      5        2      7       5        x
E|--x------x------------------------------------------- 2------- 3


verse 1

G*       F#*                       E*
Im sorry for the temper i let get away from me
   C*
I said a lot of things i didnt really mean...

---repeat progression for verses---

Pre chorus

B*                C*                    D*              C*
       and now im payin for all the mistakes that youve made

e|--------------------|
B|--------------------|
G|--------------------|  Play this right off the C* just shift up ur second
D|-4h5-5-5-4h5-5-5-4--|  and 3rd finger one string to 5 and 4 and hammer to
A|-5---5-5-5---5-5-5--|  the 5 over 5. shift right back for the chorus
E|--------------------|

Chorus
B*              C*          D*
  This is the rescue, the rescue
     E2*   D*         B*                 C*
the reason ive been holding my breath every night
G2*            F#2*
this is where we colide
B*              C*          D*
  this is the rescue, the rescue
     E2*   D*         B*                 C*
the reason ive been holding my breath every night
G2*            F#2*
this is where we colide

INTRO AGAIN

VERSE 2

PRECHORUS AND CHORUS

BRIDGE

E2*
Youll soon become
                     c*
just a voice on the other end of the phone
         D*
when i, (when i)*** go go gooo
E2*
Wearing my heart on my sleeve
       C*
has become
        D*
just a touch too messy for my

CHORUS
END WITH INTRO AND FADE OUT OR SOMETHING!!

LISTEN TO IT PLAYED IF YOU NEED HELP! LINK IS BELOW!


http://www.youtube.com/watch?v=m9aCjlZuYkk
Tap to rate this tab
# A B C D E F G H I J K L M N O P Q R S T U V W X Y Z