Song name
# A B C D E F G H I J K L M N O P Q R S T U V W X Y Z

Sebastien Cloutier - Universe tab

Universe 
by Sebastien Cloutier 
Tuning (low to high): C G C G B E

Chorus:
|---------------|----------------|-------------------|--------------------|
|---------------|----------------|-------------------|--------------------|
|---------------|----------------|-------------------|--------------------|
|--------2-2h4--|-----------9--4-|--------11--7--2-2-|----------6b7--6b7--|
|-----0---------|--------7-------|--7/9--------------|--5-5-7-7-----------|
|--0------------|--2/7-----------|-------------------|--------------------|


Bridge:
|---------------------------|----------------------|
|---------------------------|----------------------|
|---------------------------|----------------------|
|---------------------------|--2~---2--4~----------|
|---------------------------|----------------------|
|---------------------------|----------------------|

                                               h h h h
|-----------------------------|------------------------|
|--5/8---------8~---10~-------|------------------------|
|---------7h9-------------9~--|------------------7-5-7-|
|-----------------------------|-------6b7--6-7-7-------|
|-----------------------------|--5h7-------------------|
|-----------------------------|------------------------|

|----------------------------------------|-----------------7\3--|
|----------------------------------------|--8-7h8--7---7~-------|
|----------------------------------------|-----------9----------|
|--7~--------7--9p7--9/11---10--8-8h10---|----------------------|
|-------7h9------------------------------|----------------------|
|----------------------------------------|----------------------|
                                               h h h h
|-----------------------------|------------------------|
|--5/8---------8~---10~-------|------------------------|
|---------7h9-------------9~--|------------------7-5-7-|
|-----------------------------|-------6b7--6-7-7-------|
|-----------------------------|--5h7-------------------|
|-----------------------------|------------------------|

|----------------------------------------|-----------------7\3--|
|----------------------------------------|--8-7h8--7---7~-------|
|----------------------------------------|-----------9----------|
|--7~--------7--9p7--9/11---10--8-8h10---|----------------------|
|-------7h9------------------------------|----------------------|
|----------------------------------------|----------------------|


I couldn't figure out the solo...
After the solo (1:21-3:33)back to chorus then bridge. electric guitar cuts out then...

Acoustic outtro:
                                                      
                                                       h h h h
|--------------------------------|-----------------------------|
|--5/8---8---------8-8h10--------|---------8h10----------------|
|--0-----0---7/9---0----0---7~---|---7h-9--0-----11\7----7-5-7-|
|--0-----0---0-----0----0---0----|---0-----0-----------7-------|
|--0-----0---0-----0----0---0----|---0-----0-------------------|
|--0-----0---0-----0----0---0----|---0-----0-------------------|

|---------------------------------------------|----------------------------|
|--5/8---8---------8-10h8--12-10-8---10--10~--|---------7h-8-7-----------8-|
|--0-----0---7/9---0----0--0--0-------0--0----|---7--9--0----0--9-7-9----0-|
|--0-----0---0-----0----0--0--0-------0--0----|---0--0--0----0--0-0------0-|
|--0-----0---0-----0----0--0--0-------0--0----|---0--0--0----0--0-0------0-|
|--0-----0---0-----0----0--0--0-------0--0----|---0--0--0----0--0-0------0-|

|--------------------------------|-----------------------------|
|--5/8---8---------8-8h10--------|---------8h10----------------|
|--0-----0---7/9---0----0---7~---|---7h-9--0-----11\7----7-5-7-|
|--0-----0---0-----0----0---0----|---0-----0-----------7-------|
|--0-----0---0-----0----0---0----|---0-----0-------------------|
|--0-----0---0-----0----0---0----|---0-----0-------------------|

|---------------------------------------------|----------------------------|
|--5/8---8---------8-10h8--12-10-8---10--10~--|---------7h-8-7-----------8-|
|--0-----0---7/9---0----0--0--0-------0--0----|---7--9--0----0--9-7-9----0-|
|--0-----0---0-----0----0--0--0-------0--0----|---0--0--0----0--0-0------0-|
|--0-----0---0-----0----0--0--0-------0--0----|---0--0--0----0--0-0------0-|
|--0-----0---0-----0----0--0--0-------0--0----|---0--0--0----0--0-0------0-|

Check out more of Sebastien Cloutier at http://www.candyrat.com/artists/SebastienCloutier/
Tap to rate this tab
# A B C D E F G H I J K L M N O P Q R S T U V W X Y Z