Song name
# A B C D E F G H I J K L M N O P Q R S T U V W X Y Z

Sebastien Tellier - La Ritournelle tab

-----------------------------------------------------------------------------
                             La Ritournelle - Sebastien Tellier
-----------------------------------------------------------------------------
Tabbed by: Stephen Healy
E-mail: steeeeeve13@hotmail.com

Tuning: DADGBe

CAPO ON 8th FRET !!!

There seems to be a lot of people after a tab for this song, with differing ideas on 
chords etc. This tab isn't quite perfect but it is VERY close, so i would like this to be a 
talking point and beginning for suggestions to make it a perfect tab for everyone to enjoy!
I pieced this together from forums and youtube clips, pretty straight forward, 4 chords 
that seem to be used.


Capo on 8th fret.
e|-0----2----3----3----2----------------------------------------------------|
B|-1----1----1----0----0----------------------------------------------------|
G|-0----0----0----0----0----------------------------------------------------|
D|-2----2----2----0----0----------------------------------------------------|
A|-0----0----0----2----0----------------------------------------------------|
D|-0----0----0----2----0----------------------------------------------------|

That's it! Enjoy and please comment/contribute.


************************************

| /   slide up
| \   slide down
| h   hammer-on
| p   pull-off
| ~   vibrato
| +   harmonic
| x   Mute note
| b   Bend
| pb  Pre-bend
| br  Bend release
| pbr Pre-bend release
| brb Bend release bend

************************************
Tap to rate this tab
 
# A B C D E F G H I J K L M N O P Q R S T U V W X Y Z