Song name
# A B C D E F G H I J K L M N O P Q R S T U V W X Y Z

Secondhand Serenade - Let It Roll tab

Not completely sure about the high E note.

e|---------------------------------|------------------------------|
B|---------------------------------|------------------------------|
G|-----12--13--13--13--13---9---9--|---9--8s--9----13-----13------|
D|---------------------------------|------------------------------|
A|-----10--11--11--11--11---7---7--|---7--6s--7----11-----11------|
E|---------------------------------|------------------------------|

e|---------------------------------|------------------------------|
B|---------------------------------|------------------------------|
G|-----12--13--13--13--13---9---9--|---9--8s--9----8-------8------|
D|---------------------------------|------------------------------|
A|-----10--11--11--11--11---7---7--|---7--6s--7----6-------6------|
E|---------------------------------|------------------------------|
Tap to rate this tab
# A B C D E F G H I J K L M N O P Q R S T U V W X Y Z