Song name
# A B C D E F G H I J K L M N O P Q R S T U V W X Y Z

Secondhand Serenade - Why tab

	
Why - Secondhand Serenade

Intro:

e|---7---7---7---7---7---7---7---7--------|
B|-----8---8---8---8---8---8---8---8------|
G|----------------------------------------|
D|----------------------------------------|
A|----------------------------------------|
E|----------------------------------------|

e|---7---7---7---7---8---8---10---8--------|
B|-----8---8---8---8---8---8----8---8------|
G|-----------------------------------------|
D|-----------------------------------------|
A|-----------------------------------------|
E|-----------------------------------------|	
Tap to rate this tab
 
# A B C D E F G H I J K L M N O P Q R S T U V W X Y Z