Song name
# A B C D E F G H I J K L M N O P Q R S T U V W X Y Z

Sector Seven - You Never Know tab

This song is a good song and has no tabs yet so i thought i would make an attempt. This 
may not be right on, and i don't have the whole song done yet but let me know what you 
of it. The strumming can be figured out by listening to the song and so can the order.

Andrew_white665@hotmail.com

Stand Tuning

   .= Palm Mute
   /= Slide

Intro:

e------------------------------------------------------------|
B------------------------------------------------------------|
G------------------------------------------------------------|     x3
D--------4--------4--------4--8-7-5--------------------------|
A--------4--------4--------4--6-5-3--------------------------|
E--00000-2--00000-2--00000-2---------------------------------|
                              . .

e------------------------------------------------------------|
B------------------------------------------------------------|
G------------------------------------------------------------|
D--------4--------4--------4--8-7--8-7--8-7-8-7--8-7-5-4-4---|
A--------4--------4--------4--6-5--6-5--6-5-6-5--6-5-3-2-4---|
E--00000-2--00000-2--00000-2-----------------------------2---|
                              . .  . .  . . . .  . . . .

1st verse:

e------------------------------------------------------------        -- |
B------------------------------------------------------------        -- |
G------------6--6-6-6--7--7-7-7--5--5-5-5--------------------        -- |
D--4--4-4-4--4--4-4-4--7--7-7-7--5--5-5-5---7-5-4------------        -- |
A--4--4-4-4------------5--5-5-5--3--3-3-3---7-5-4------------        -- |
E--2--2-2-2---------------------------------5-3-2------------        -- |
                                            . .                       |
                                                                      | play
e------------------------------------------------------------         | as
B------------------------------------------------------------         | one
G------------6--6-6-6--9--9-9-9--11--11-11-11----------------         | x2
D--4--4-4-4--4--4-4-4--7--7-7-7--9---9--9--9-----------------         |
A--4--4-4-4--------------------------------------------------         |
E--2--2-2-2--------------------------------------------------         |
                                                                     -

2nd verse:

e------------------------------------------------------------|
B------------------------------------------------------------|
G-----------------------------7--7-7-7--5--5-5-5-------------|   x4
D--4-4-4-4-4---4-4-4-4-4------7--7-7-7--5--5-5-5---7-5-4-----|
A--4-4-4-4-4---4-4-4-4-4------5--5-5-5--3--3-3-3---7-5-4-----|
E--2-2-2-2-2-0-2-2-2-2-2---------------------------5-3-2-----|
                                                   . .

3rd verse:

e------------------------------------------------------------|
B------------------------------------------------------------|
G--------------------------7--7-7-7-7------------------------|
D--4--4-4-4-4--2--2-2-2-2--7--7-7-7-7--8-7-5-4---------------|
A--4--4-4-4-4--2--2-2-2-2--5--5-5-5-5--8-7-5-4---------------|
E--2--2-2-2-2--0--0-0-0-0--------------6-5-3-2---------------|
                                       . . .

e------------------------------------------------------------|
B------------------------------------------------------------|
G--------------6-6-6-6-6--7--7-7-7-7-------------------------|
D--4--4-4-4-4--4-4-4-4-4--7--7-7-7-7--8-7-4------------------|
A--4--4-4-4-4-------------5--5-5-5-5--8-7-4------------------|
E--2--2-2-2-2-------------------------6-5-2------------------|
                                      . .

4th verse:

e------------------------------------------------------------         --- |
B------------------------------------------------------------         --- |
G------------------------------------------------------------         --- |
D--4-4-4-4--0-2--4-4-4-4--0-2--4-4-4-4--0-2--7-6------------------------- |          | play
A--4-4-4-4--0-2--4-4-4-4--0-2--4-4-4-4--0-2--5-4-------------         --- | 2x
E--2-2-2-2--0-0--2-2-2-2--0-0--2-2-2-2--0-0------------------         --- |
                                                                       |
e------------------------------------------------------------         -- |
B------------------------------------------------------------         -- |
G------------------------------------------------------------         -- |
D--4-4-4-4--0-2--4-4-4-4--0-2--4-4-4-4--0-2--5-[5]*----------         -- |
A--4-4-4-4--0-2--4-4-4-4--0-2--4-4-4-4--0-2--3-[3]*----------         -- |
E--2-2-2-2--0-0--2-2-2-2--0-0--2-2-2-2--0-0------------------         -- |

* Play brackets second time around

5th verse

e------------------------------------------------------------|
B------------------------------------------------------------|
G------------------------------------------------------------|
D-------6/7--2-------6/7--4-------6/7--9---6-6-6-7-6---------|
A--4-4--4/5--0--4-4--4/5--2--4-4--4/5--5---4-4-4-5-4---------|
E--2-2----------2-2----------2-2-----------------------------|
                                           . . . . .

Outro:

e------------------------------------------------------------|
B------------------------------------------------------------|
G------------------------------------------------------------|
D--4--4-4-4-4--2--4------------------------------------------|
A--4--4-4-4-4--2--4------------------------------------------|
E--2--2-2-2-2--0--2------------------------------------------|
Tap to rate this tab
# A B C D E F G H I J K L M N O P Q R S T U V W X Y Z