Song name
# A B C D E F G H I J K L M N O P Q R S T U V W X Y Z

See You Soon - Fall In Love tab

See You Soon
Fall In Love tabs tuning:DADGad
Have fun!


INTRO
d|-------------------------------------------------------------|
A|-------------------------------------------------------------|
G|----11-----11-----11-----12-----11-----12-----14-----14------|
D|----0------0------0------0------0------0------0------0-------|
A|-------------------------------------------------------------|
D|-9------9------9------9------9------9------9------9----------|

d|-------------------------------------------------------------|
a|-------------------------------------------------------------|
G|----6------7------6------6------6-------7------9------9------|
D|----7------7------7------7------7-------7------7------7------|
A|-0------0------0------0------0------0------0------0----------|
D|-------------------------------------------------------------|

d|-------------------------------------------------------------|
a|-------------------------------------------------------------|
G|----11-----11-----11-----12-----11-----9------11-----11------|
D|----0------0------0------0------0------0------0------0-------|
A|-------------------------------------------------------------|
D|-9------9------9------9------9------9------9------9----------|

d|-------------------------------------------------------------|
a|-------------------------------------------------------------|
G|----6------7------6------6------6-------7------9------9------|
D|----7------7------7------7------7-------7------7------7------|
A|-0------0------0------0------0------0------0------0----------|
D|-------------------------------------------------------------|

vs1
d|-------------------------------------------------------------|
a|-------------------------------------------------------------|
G|----11-----11-----11-----11-----11-----11-----11-----11------|
D|----0------0------0------0------0------0------0------0-------|
A|-------------------------------------------------------------|
D|-9------9------9------9------9------9------9------9----------|

d|-------------------------------------------------------------|
a|-------------------------------------------------------------|
G|----6------7------6------6------6-------7------9------9------|
D|----7------7------7------7------7-------7------7------7------|
A|-0------0------0------0------0------0------0------0----------|
D|-------------------------------------------------------------|x2

Now I want to show you...

d|-------------------------------------------------------------|
a|-------------------------------------------------------------|
G|----11-----11-----11-----11-----11-----11-----11-----11------|
D|----0------0------0------0------0------0------0------0-------|
A|-------------------------------------------------------------|
D|-9------9------9------9------9------9------9------9----------|

Always tried to be..
d|-------------------------------------------------------------|
a|-------------------------------------------------------------|
G|----9------9------9------9-----------------------------------|
D|----0------0------0------0-----------------------------------|
A|-------------------------------------------------------------|
D|-7------7------7------7------5-------------------------------|

Chorus
d|-------------------------------------------------------------|
a|----7------7------9------9------12------12------12------12---|
G|----7------7------9------9------11------11------11------11---|
D|-------------------------------------------------------------|
A|-------------------------------------------------------------|
D|-5------5------7------7------9------9------9------9----------|x3

d|-------------------------------------------------------------|
a|----7------7------9------9-------------11--------------------|
G|----7------7------9------9-----0-------0---------------------|
D|-------------------------------------------------------------|
A|-------------------------------------------------------------|
D|-5------5------7------7------9------9------------------------|
Tap to rate this tab
 
# A B C D E F G H I J K L M N O P Q R S T U V W X Y Z