Song name
# A B C D E F G H I J K L M N O P Q R S T U V W X Y Z

Seed - Rapture Acoustic chords

Highlighted       Show chord diagrams
"Rapture" Easy Acoustic Version
Artist: Seed
Album: Ling
*This is my own acoustic version and can be capo-ed to fit
your singing range.  I usually capo at 1st fret.

Chorus:
D         A
Stay with me
C         G/B         D
Find time waste it on me
D      F#m4    C                 G/B       DM7
You'll see the trouble I've been through today

Riff:  DM7 - C#m7 - CM7 - Bm7    (x2)

Verse 1:
D      G       A            C      D
We can be like cats and creepy crawly
D        G            A         C    D
Pick the bugs from my hair like a monkey
D       G        A         C      D
Take an elephant ride down to the sea
D       Em7      F#m7   G
This is the last day of mine

Verse 2:
D      G      A            C       D
We can skinny dip with the sea lions
D      G    A             C          D
Get octopus hugs till the tides come in
D     G      A                 C    D
Lay upon the rocks and blow dandelions
D       Em7      F#m7   G
This is the last day of mine

Bridge:
F#m4      F#7       G   Em7    A#  C
Tickle my nose with a - nother rose

Suggested Chord Voicings:

Chorus:
   D A C G/B F#m4
E: 2-0-0-X---X-|
B: 3-2-1-3---0-|
G: 2-2-0-0---2-|
D: 0-2-2-0---4-|
A: X-0-3-2---4-|
E: X-X-X-X---X-|

Octave Riff:
   DM7 C#m7 CM7 Bm7
E: X---X----X---X-|
B: 7---5----5---3-|
G: 6---4----4---2-|
D: X---X----X---X-|
A: 5---4----3---2-|
E: X---X----X---X-|

Verse:
   D G A C Em7 F#m7
E: 2-3-0-0-0---X-|
B: 3-3-2-1-3---2-|
G: 2-0-2-0-0---2-|
D: 0-0-2-2-2---0-|
A: X-2-0-3-2---0-|
E: X-3-X-X-0---2-|

Bridge:
   F#m4 F#7 G Em7 A# C
E: X----2---3-0---X--0-|
B: 0----5---3-3---3--1-|
G: 2----3---0-0---X--0-|
D: 4----2---0-2---3--2-|
A: 4----4---2-2---1--3-|
E: X----2---3-0---X--X-|
Tap to rate this tab
# A B C D E F G H I J K L M N O P Q R S T U V W X Y Z