Song name
# A B C D E F G H I J K L M N O P Q R S T U V W X Y Z

Seether - Roses tab

Key P=pull off	H=hammer on	/=slide up	~=vibrato	^= bend up

    *= Palm Mute



INTRO
D------------------------------------|
A---3-3/5--2-------------------------|
F------------2h3-3/5-3-2-2h3p2-------|
C------------------------------5-----|
G------------------------------------|
C------------------------------------|

CHORUS
D-----------------------------------------| (you have to listen to the song for timing and
A-----------------------------------------|  how many times you play each note)
F-----------------------------------------|
C-----------------------------------------|
G--/5--8-7-8--4--/8-7-8---7h8-7-8---7-4---|
C-----------------------8---------7-------|

D-----------------------------------------|
A-----------------------------------------|
F-----------------------------------------|
C-----------------------------------------|
G-/5—5h7p5-4-4/12—12h13p12-10-------------|
C-----------------------------------------|

VERSE
D--------5---------------------------| (play 5 times)
A----------6----------8--------------|
F------7------------6----------------|
C----7------------5------------------|
G--5------------0--------------------|
C------------------------------------|

D-------1----------------------------|
A---------1----------5---------------|
F-----3------------6-----------------|
C---3------------5-------------------|
G-1------------0---------------------|
C------------------------------------|

PRE-BREAKDOWN
D------------------------------------|
A------------------------------------|
F------------------------------------|
C------------------------------------|
G------------------------------------|
C-0H12-12-12-0H12-12-12—12-10-15-----|

D------------------------------------|
A------------------------------------|
F------------------------------------|
C------------------------------------|
G------------------------------------|
C-0H12-12-12-0H12-12-12-12-8---------|


D------------------------------------|
A------------------------------------|
F------------------------------------|
C------------------------------------|
G------------------------------------|
C-0H12-12-12-0H12-12-12—12-10-15-----|


D------------------------------------|
A------------------------------------|
F------------------------------------|
C------------------------------------|
G------------------------------------|
C-8-8-8-8-10--5-5-5-5-7p5p3p0--------|

BREAKDOWN
D------------------------------------|
A------------------------------------|
F------------------------------------|
C-0H12-12-12-0H12-12-12-12-10-15-----|
G-0H12-12-12-0H12-12-12-12-10-15-----|
C-0H12-12-12-0H12-12-12—12-10-15-----|

D------------------------------------|
A------------------------------------|
F------------------------------------|
C-0H12-12-12-0H12-12-12-12-8---------|
G-0H12-12-12-0H12-12-12-12-8---------|
C-0H12-12-12-0H12-12-12-12-8---------|


D------------------------------------|
A------------------------------------|
F------------------------------------|
C-0H12-12-12-0H12-12-12-12-10-15-----|
G-0H12-12-12-0H12-12-12-12-10-15-----|
C-0H12-12-12-0H12-12-12—12-10-15-----|

D------------------------------------|
A------------------------------------|
F------------------------------------|
C-8-8-8-8-10--5-5-5-5-------0--------|
G-8-8-8-8-10--5-5-5-5-------0--------|
C-8-8-8-8-10--5-5-5-5-7p5p3p0--------|

“SOLO”
D--------------------------------------------------|
A--------------------------------------------------|
F—14-14-14-17-—12-12-12-14--10-10-10-12-—9-9-10P9--|
C------------------------------------------------12|
G--------------------------------------------------|
C--------------------------------------------------| X2

D------------------------------------| (the first two bends are ½ note bends, or bend
A—12^-10----10—10^-8----8^-6-5-------|  the 12th fret note to match the 13th fret note)
F--------12----------10--------7-----|
C------------------------------------|
G------------------------------------|
C------------------------------------|




POST BREAKFOWN
D------------------------------------|
A------------------------------------|
F------------8-----10----12----------|
C------0-----8-----10----12----------|
G------0-----6-----8-----10----------|
C—0-0--0--0-0---0-0---0-0------------|
  * *     * *   * *   * *

D------------------------------------|
A------------------------------------|
F------------------------------------|
C-8-8-8-8-10--5-5-5-5-------0--------|
G-8-8-8-8-10--5-5-5-5-------0--------|
C-8-8-8-8-10--5-5-5-5-7p5p3p0--------|

OUTRO
D------------------------------------|
A------------------------------------|
F------------8-----10----12----------|
C------0-----8-----10----12----------|
G------0-----6-----8-----10----------|
C—0-0--0--0-0---0-0---0-0------------| X3
  * *     * *   * *   * *

D---------------------------------------|
A---------------------------------------|
F---------------------------------------|
C-8-8-8-8-10--5-5-5-5-------0-----------|
G-8-8-8-8-10--5-5-5-5-------0-----------|
C-8-8-8-8-10--5-5-5-5-7-5-3-0-----------|
                      * * *
Tap to rate this tab
# A B C D E F G H I J K L M N O P Q R S T U V W X Y Z