Song name
# A B C D E F G H I J K L M N O P Q R S T U V W X Y Z

Seether - Words As Weapons tab

Band: Seether
Album: Isolate and Medicate
Song: Words as Weapons
Tuning: Drop D DADGBE

Im a finger-less guitarist on YouTube: xxkoleon5xx   I plan on doing a cover of this soon! 

Seether is one of my favorite bands and im happy to finally do a tab of one of their songs, especially a new one! 

If you think something needs fixed, comment on the tab and let me know.

E|---------------------------------------------------------------------------|
B|---------------------------------------------------------------------------|
G|---------------------------------------------------------------------------|
D|-----3-3-3-3-3-------------------------------------------------------------|
A|-----3-3-3-3-3-------------------------------------------------------------|
D|-----3-3-3-3-3-------------------------------------------------------------|
       * * * * 

E|---------------------------------------------------------------------------|
B|---------------------------------------------------------------------------|
G|---------------------------------------------------------------------------|
D|-----3-3-3-3-3------1--------8-------8----11--10---------------------------|
A|-----3-3-3-3-3------1--------8-------8----11--10---------------------------|
D|-----3-3-3-3-3------1--------8-------8----11--10---------------------------|
       * * * *   

         ****** VERSE RIFF (1) ******     X4 
E|---------------------------------------------------------------------------|
B|---------------------------------------------------------------------------|
G|---------------------------------------------------------------------------|
D|---------------------------------------------------------------------------|
A|---------------------------------------------------------------------------|
D|-----15-15-15-15-15-15-15-15/10-10-10-10-10-10-10-10\----------------------| 

E|---------------------------------------------------------------------------|
B|---------------------------------------------------------------------------|
G|---------------------------------------------------------------------------|
D|---------------------------------------------------------------------------|
A|---------------------------------------------------------------------------|
D|----13-13-13-13-13-13-13-13/11-11-11-11-11-11-11-11------------------------| 


      ****** CHORUS RIFF ******     X2
E|---------------------------------------------------------------------------|
B|---------------------------------------------------------------------------|
G|---------------------------------------------------------------------------|
D|------3------1--------8-------8----11--10----------------------------------|
A|------3------1--------8-------8----11--10----------------------------------|
D|------3------1--------8-------8----11--10----------------------------------|
          


         ****** VERSE RIFF (2) ******     X4 
E|---------------------------------------------------------------------------|
B|---------------------------------------------------------------------------|
G|---------------------------------------------------------------------------|
D|---------------------------------------------------------------------------|
A|---------------------------------------------------------------------------|
D|-----15-15-15-15-15-15-15-15/10-10-10-10-10-10-10-10\----------------------| 

E|---------------------------------------------------------------------------|
B|---------------------------------------------------------------------------|
G|---------------------------------------------------------------------------|
D|---------------------------------------------------------------------------|
A|---------------------------------------------------------------------------|
D|----13-13-13-13-13-13-13-13/11-11-11-11-11-11-11-11------------------------|




        ******** BRIDGE RIFF ***********      X4
E|---------------------------------------------------------------------------|
B|---------------------------------------------------------------------------|
G|---------------------------------------------------------------------------|
D|------3------6---5-------8----6-------10---8-------11---10-----------------|
A|------3------6---5-------8----6-------10---8-------11---10-----------------|
D|------3------6---5-------8----6-------10---8-------11---10-----------------|





         ****** VERSE RIFF (LAST ONE) ******     X1
E|---------------------------------------------------------------------------| 
B|---------------------------------------------------------------------------|
G|---------------------------------------------------------------------------|
D|---------------------------------------------------------------------------|
A|---------------------------------------------------------------------------|
D|-----15-15-15-15-15-15-15-15/10-10-10-10-10-10-10-10\----------------------|  

E|---------------------------------------------------------------------------|
B|---------------------------------------------------------------------------|
G|---------------------------------------------------------------------------|
D|---------------------------------------------------------------------------|
A|---------------------------------------------------------------------------|
D|----13-13-13-13-13-13-13-13/11-11-11-11-11-11-11-11------------------------|





      ****** CHORUS RIFF ******     X2
E|---------------------------------------------------------------------------|
B|---------------------------------------------------------------------------|
G|---------------------------------------------------------------------------|
D|------3------1--------8-------8----11--10----------------------------------|
A|------3------1--------8-------8----11--10----------------------------------|
D|------3------1--------8-------8----11--10----------------------------------|





        ******** BRIDGE RIFF ***********      X4
E|---------------------------------------------------------------------------|
B|---------------------------------------------------------------------------|
G|---------------------------------------------------------------------------|
D|------3------6---5-------8----6-------10---8-------11---10-----------------|
A|------3------6---5-------8----6-------10---8-------11---10-----------------|
D|------3------6---5-------8----6-------10---8-------11---10-----------------|





Finished! Hope you enjoyed, comment if you think anything needs fixed! 
Tap to rate this tab
 
# A B C D E F G H I J K L M N O P Q R S T U V W X Y Z