Song name
# A B C D E F G H I J K L M N O P Q R S T U V W X Y Z

Selecter - Everyday tab

-----------------------------------------------------------------------------
                             EVERYDAY - The Selecter
-----------------------------------------------------------------------------
Tabbed by: Tyler
E-mail: hill.tyler63@yahoo.com

Tuning: Standard

Opening chord
   Cdim
e|---------------------------------------------------------------------------|
B|-7-------------------------------------------------------------------------|
G|-5-------------------------------------------------------------------------|
D|-7-------------------------------------------------------------------------|
A|-6-------------------------------------------------------------------------|
E|---------------------------------------------------------------------------|
It doesn't sound perfect to me, but it's as close as I could get it.

Organ riff
e|---------------------------------------------------5----3------------------|
B|-5--3-----5--3-----5--3------------3--5---6--------------------------------|
G|-------5--------5--------5------5--------------5---------------------------|
D|---------------------------------------------------------------------------|
A|---------------------------------------------------------------------------|
E|---------------------------------------------------------------------------|

Lead guitar over organ riff (first time)
e|---------------------------------------------------------------------------|
B|-10-10--8------------------------------------------------------------------|
G|-----------10--9--9--7-----------------------------------------------------|
D|------------------------10\5-----------------------------------------------|
A|---------------------------------------------------------------------------|
E|---------------------------------------------------------------------------|

(second time)
e|---------------------------------------------------------------------------|
B|-10-10-10-8----------------------------------------------------------------|
G|-------------10--9--9--7---------------------------------------------------|
D|--------------------------10\5---------------------------------------------|
A|---------------------------------------------------------------------------|
E|---------------------------------------------------------------------------|
The slide down to the fifth fret the first time is difficult to hear.

Rhythm guitar during organ riff/verses
   C        F        G
e|-x-8------x-5------x-7-----------------------------------------------------|
B|-x-8--x8--x-6--x4--x-8--x4-------------------------------------------------|
G|-x-9------x-5------x-7-----------------------------------------------------|
D|---------------------------------------------------------------------------|
A|---------------------------------------------------------------------------|
E|---------------------------------------------------------------------------|

Organ part beginning on "Time's so hard..." or 0:30
e|---------------------------------------------------------------------------|
B|------8---------------8-----------8----------------------------------------|
G|-9-10------------------------9-10------------------------------------------|
D|--------10-10----7------------------10-10----7-----5-----------------------|
A|---------------------------------------------------------------------------|
E|---------------------------------------------------------------------------|

During the chorus ("I took him down to the market place...") the rhythm of
the guitar part varies from recording to recording so I'll let you decide what
rhythm to play. The progression is:

F/// //// Em/// //// F/// //// G (which you strum once and then pause for the
"You gotta hold your head up high" part.)


************************************

| /   slide up
| \   slide down
| h   hammer-on
| p   pull-off
| ~   vibrato
| +   harmonic
| x   Mute note
| b   Bend
| pb  Pre-bend
| br  Bend release
| pbr Pre-bend release
| brb Bend release bend

************************************
Tap to rate this tab
 
# A B C D E F G H I J K L M N O P Q R S T U V W X Y Z