Song name
# A B C D E F G H I J K L M N O P Q R S T U V W X Y Z

Selena Gomez - Kiss And Tell tab

Selena Gomez & The Scene - Kiss and Tell

Standard Tuning

Listen to the Song for strumming pattern

INTRO
e|-----------------------------|
B|-----------------------------|
G|-----------------------------|
D|---------------5---7---------| that part is repested a lot
A|----------7------------------|
E|---5--5------5---------------|

CHORUS
e|--------------------------------------------------------------|
B|--------------------------------------------------------------|
G|----------------------------------12----10-----7--------------|
D|--------7-------------7-----10----12----10-----7--------------| 2x
A|----5h7-7---------5h7-7-----10----10----8------5--------------|
E|--5-----5-------5-----5-----8---------------------------------|

POST CHORUS
e|--------------------------------------|
B|--------------------------------------|
G|--------------------------------------| 4x
D|---------------5----7-----------------|
A|-------7------------------------------|
E|---5-------5--------------------------|

BRIDGE
e|------------------------------------------|
B|------------------------------------------|
G|-----9-8----------------7-8-9-------------|
D|----------10-9---7-9-10-------------------| 3x
A|---0--------------------------------------|
E|------------------------------------------|

On the next chorus it starts like this 
e|--------------------------------------------|
B|--------------------------------------------|
G|--------------------------------------------|
D|--------7--------7---------10---------------|
A|----5h7-7----5h7-7-----5h7/10---------------|
E|--5-----5--5-----5---5-----8----------------|
Then it just continues like all the other choruses

OUTRO
e|-------------------------------|
B|-------------------------------|
G|-------------------------------|
D|------------5--7---------------| 8x
A|------7------------------------|
E|---5-----5---------------------|

TABBED BY KARLA DULAY!
if you need to contact me,do it through my youtube cuz i hardly ever check my email
MY YOUTUBE: msslamchamp
Tap to rate this tab
# A B C D E F G H I J K L M N O P Q R S T U V W X Y Z