Song name
# A B C D E F G H I J K L M N O P Q R S T U V W X Y Z

Selena Gomez - Round And Round tab

-------------------------------------------------------------------------------
			          ROUND AND ROUND - Selena Gomez & The Scene
-------------------------------------------------------------------------------
Tabbed by: Spence
Email: pointgodspence@hotmail.com

Tuning: Standard

Intro:

e|----------------------------------------------------------------------|
B|----------------------------------------------------------------------|
G|--10~---12/14---12\7---9/10~-----12/14----12\7------9/10~-------------|
D|----------------------------------------------------------------------|
A|----------------------------------------------------------------------|
E|----------------------------------------------------------------------|

e|----------------------------------------------------------------------|
B|----------------------------------------------------------------------|
G|--12/14----12/7-----9/10~--------12/14-----12\7~----------------------|
D|----------------------------------------------------------------------|
A|----------------------------------------------------------------------|
E|----------------------------------------------------------------------|

Verse:

You see me standing there And act like you dont know me
But last night you were calling me Saying you want me
Oh why you always make me feel Like I'm the one thats crazy
You feel my heart racing My-my heart racing
e|----------------------------------------------------------------------|
B|----------------------------------------------------------------------|
G|--7-7-7------3--3/5-----7-7-7------3--3/5-----------------------------| X2
D|--7-7-7------3--3/5-----7-7-7------3--3/5-----------------------------|
A|--5-5-5------1--1/3-----5-5-5------1--1/3-----------------------------|
E|----------------------------------------------------------------------|

Pre-Chorus:

Boy, I need you here with me, We can't go on this way
e|----------------------------------------------------------------------|
B|----------------------------------------------------------------------|
G|--10~---12/14---12\7---9/10~-----12/14----12\7------9/10~-------------|
D|----------------------------------------------------------------------|
A|----------------------------------------------------------------------|
E|----------------------------------------------------------------------|

I'm falling hard for you, And all I can say
e|----------------------------------------------------------------------|
B|----------------------------------------------------------------------|
G|--12/14----12/7-----9/10~--------12/14-----12\7~----------------------|
D|----------------------------------------------------------------------|
A|----------------------------------------------------------------------|
E|----------------------------------------------------------------------|

Chorus:

We're going round and round We're never gonna stop
Going round and round We'll never get where We are going
Round and round Well your gonna miss me
e|----------------------------------------------------------------------|
B|----------------------------------------------------------------------|
G|--7-7-7------10---3-----7-7-7------10---3-----7-7-7------10---3-------|
D|--7-7-7------10---3-----7-7-7------10---3-----7-7-7------10---3-------|
A|--5-5-5------8----1-----5-5-5------8----1-----5-5-5------8----1-------|
E|----------------------------------------------------------------------|

Cause im getting dizzy Going round and round 
e|-------------------------------------------|
B|-------------------------------------------|
G|--7----------------------------------------|
D|--7----------------------------------------|
A|--5----------------------------------------|
E|--------3-1-3-1-3-1-3-1--------------------|

Verse:

You tried to pull me close And whisper in my ear
You always told me lies I cried out all my tears
I pushed my feelings to the side But then you bring them back
B-bring them back Now you got me singing
e|----------------------------------------------------------------------|
B|----------------------------------------------------------------------|
G|--7-7-7------3--3/5-----7-7-7------3--3/5-----------------------------| X2
D|--7-7-7------3--3/5-----7-7-7------3--3/5-----------------------------|
A|--5-5-5------1--1/3-----5-5-5------1--1/3-----------------------------|
E|----------------------------------------------------------------------|

Pre-Chorus:

Boy,I need you here with me We cant go on this way
e|----------------------------------------------------------------------|
B|----------------------------------------------------------------------|
G|--10~---12/14---12\7---9/10~-----12/14----12\7------9/10~-------------|
D|----------------------------------------------------------------------|
A|----------------------------------------------------------------------|
E|----------------------------------------------------------------------|

I'm falling hard for you And all I can say
e|----------------------------------------------------------------------|
B|----------------------------------------------------------------------|
G|--12/14----12/7-----9/10~--------12/14-----12\7~----------------------|
D|----------------------------------------------------------------------|
A|----------------------------------------------------------------------|
E|----------------------------------------------------------------------|

Chorus:

We're going round and round We're never gonna stop
Going round and round We'll never get where We are going
Round and round Well your gonna miss me
e|----------------------------------------------------------------------|
B|----------------------------------------------------------------------|
G|--7-7-7------10---3-----7-7-7------10---3-----7-7-7------10---3-------|
D|--7-7-7------10---3-----7-7-7------10---3-----7-7-7------10---3-------|
A|--5-5-5------8----1-----5-5-5------8----1-----5-5-5------8----1-------|
E|----------------------------------------------------------------------|

Cause im getting dizzy Going round and round, Round and round
e|-------------------------------------------|
B|-------------------------------------------|
G|--7----------------------------------------|
D|--7----------------------------------------|
A|--5----------------------------------------|
E|--------3-1-3-1-3-1-3-1--------------------|

Interlude:

Love me or Love me not
Im starring at the clock
I take them flower petals off
And then I watch them drop

(No guitar)

Love me or Love me not Im starring at the clock
I take them flower petals off And then I watch them drop
e|----------------------------------------------------------------------|
B|----------------------------------------------------------------------|
G|--7-7-7----3-3/5----7-7-7----3-3-3-3----------------------------------|
D|--7-7-7----3-3/5----7-7-7----3-3-3-3----------------------------------|
A|--5-5-5----1-1/3----5-5-5----1-1-1-1----------------------------------|
E|----------------------------------------------------------------------|

Pre-Chorus:

Boy,I need you here with me We cant go on this way
e|----------------------------------------------------------------------|
B|----------------------------------------------------------------------|
G|--10~---12/14---12\7---9/10~-----12/14----12\7------9/10~-------------|
D|----------------------------------------------------------------------|
A|----------------------------------------------------------------------|
E|----------------------------------------------------------------------|

I'm falling hard for you And all I can say
e|----------------------------------------------------------------------|
B|----------------------------------------------------------------------|
G|--12/14----12/7-----9/10~--------12/14-----12\7~----------------------|
D|----------------------------------------------------------------------|
A|----------------------------------------------------------------------|
E|----------------------------------------------------------------------|

Chorus:

We're going round and round We're never gonna stop
Going round and round We'll never get where We are going
Round and round Well your gonna miss me
e|----------------------------------------------------------------------|
B|----------------------------------------------------------------------|
G|--7-7-7------10---3-----7-7-7------10---3-----7-7-7------10---3-------|
D|--7-7-7------10---3-----7-7-7------10---3-----7-7-7------10---3-------|
A|--5-5-5------8----1-----5-5-5------8----1-----5-5-5------8----1-------|
E|----------------------------------------------------------------------|

Cause im getting dizzy Going round and round and Round and round
e|-------------------------------------------|
B|-------------------------------------------|
G|--7----------------------------------------|
D|--7----------------------------------------|
A|--5----------------------------------------|
E|--------3-1-3-1-3-1-3-1--------------------|

We're going round and round We're never gonna stop
Going round and round We'll never get where We are going
Round and round Well your gonna miss me
e|----------------------------------------------------------------------|
B|----------------------------------------------------------------------|
G|--7-7-7------10---3-----7-7-7------10---3-----7-7-7------10---3-------|
D|--7-7-7------10---3-----7-7-7------10---3-----7-7-7------10---3-------|
A|--5-5-5------8----1-----5-5-5------8----1-----5-5-5------8----1-------|
E|----------------------------------------------------------------------|

Cause im getting dizzy Going round and round and Round and round
e|-------------------------------------------|
B|-------------------------------------------|
G|--7----------------------------------------|
D|--7----------------------------------------|
A|--5----------------------------------------|
E|--------3-1-3-1-3-1-3-1--------------------|

Outro:

e|----------------------------------------------------------------------|
B|----------------------------------------------------------------------|
G|--10~---12/14---12\7---9/10~-----12/14----12\7------9/10~-------------|
D|----------------------------------------------------------------------|
A|----------------------------------------------------------------------|
E|----------------------------------------------------------------------|

e|----------------------------------------------------------------------|
B|----------------------------------------------------------------------|
G|--12/14----12/7-----9/10~---------------------------------------------|
D|------------------------------5-3-5-3-5-3-5-3-------------------------|
A|----------------------------------------------------------------------|
E|----------------------------------------------------------------------|

Great song and full album out September 28th.

As always, listen to the song to get the timing down

Enjoy,
-Spence

Lyrics:

You see me standing there
And act like you dont know me
But last night you were calling me
Saying you want me
Oh why you always make me feel
Like I'm the one thats crazy
You feel my heart racing
My-my heart racing

Boy, I need you here with me
We can't go on this way
I'm falling hard for you
And all I can say

We're going round and round
We're never gonna stop
Going round and round
We'll never get where
We are going
Round and round
Well your gonna miss me
Cause im getting dizzy
Going round and round
Round and round

You tried to pull me close
And whisper in my ear
You always told me lies
I cried out all my tears
I pushed my feelings to the side
But then you bring them back
B-bring them back
Now you got me singing

Boy,I need you here with me
We cant go on this way
I'm falling hard for you
And all I can say

We're going round and round
We're never gonna stop
Going round and round
We'll never get where
We are going
Round and round
Well your gonna miss me
Cause im getting dizzy
Going round and round
Round and round

Love me or Love me not
Im starring at the clock
I take them flower petals off
And then I watch them drop
Love me or Love me not
Im starring at the clock
I take them flower petals off
And then I watch them drop

Boy,I need you here with me
We cant go on this way
I'm falling hard for you
And all I can say

We're going round and round
We're never gonna stop
Going round and round
We'll never get where
We are going
Round and round
Well your gonna miss me
Cause im getting dizzy
Going round and round
Round and round


************************************

| /   slide up
| \   slide down
| h   hammer-on
| p   pull-off
| ~   vibrato
| +   harmonic
| x   Mute note
| b   Bend
| pb  Pre-bend
| br  Bend release
| pbr Pre-bend release
| brb Bend release bend

************************************
Tap to rate this tab
 
# A B C D E F G H I J K L M N O P Q R S T U V W X Y Z