Selena Gomez - Make It Happen tab

-----------------------------------------------------------------------------
	              Make it happen - Selena Gomez ft. David Henrie
-----------------------------------------------------------------------------
Tabbed by: Freshmcleo
Email: abc.a9@gmx.net

It's my first TAB, but I'm pretty sure about it.

Tuning: The distortion is very important!

e|----------------------------------------|
B|----------------------------------------|
G|9-9-x-x-7-7-x-x-------------------------|
D|9-9-x-x-7-7-x-x-7-7-x-x-9-9-x-x---------|  x 5
A|7-7-x-x-5-5-x-x-7-7-x-x-9-9-x-x---------|
E|----------------5-5-x-x-7-7-x-x---------|

e|--------------------------------------------|
B|--------------------------------------------|
G|9-9-9-9----7-7-7-7--------------------------|
D|9-9-9-9----7-7-7-7----7-7-7-7----9-9-9-9----|
A|7-7-7-7----5-5-5-5----7-7-7-7----9-9-9-9----|
E|----------------------5-5-5-5----7-7-7-7----|

Just repeat and rock! Thanks for rating

************************************************************************
Tap to rate this tab
 
# A B C D E F G H I J K L M N O P Q R S T U V W X Y Z