Song name
# A B C D E F G H I J K L M N O P Q R S T U V W X Y Z

Sens - Hey Baby tab

                           HEY BABY
----------------------------------------------------------------------------


La toune est jouee en Drop D flat mais ca se joue aussi bien tout simplement en Drop D

Intro :

6 :---0-3v--0-3v--0-3v------0-3v--0-3v--0-3v-----0-3v--0-3v--0-3v--0-3v-------|
5 :-----------------------------------------------------------------------555-|
4 :-----------------------------------------------------------------------777-|
3 :-----------------------------------------------------------------------777-|
2 :---------------------------------------------------------------------------|
1 :---------------------------------------------------------------------------|

6 :0-3v--0-3v--0-3v--0-3v--------------------5--0--5--3--0--3--0------------|
5 :-------------------------555--5--3--0--3--5--0--5--3--0--3--0------------|
4 :-------------------------777--7--5--0--5---------------------------------|
3 :-------------------------777--7--5--0--5---------------------------------|
2 :-------------------------------------------------------------------------|
1 :-------------------------------------------------------------------------|

Verse

Le guitariste joue cette partie suelement 2 fois ensuite c'est la bass qui le joue mais 
vous jouez en meme temps que la basse ca sonne aussi bon


6 :0-2-0-3-0-5-------------------|
5 :------------2-0-3-0-5-0----5--|v
4 :------------------------3-----|
3 :------------------------------|
2 :------------------------------|
1 :------------------------------|

Pre-Chorus

Jouez cette partie quand il chante:

Laisse-moi Laisse-moi...   ooooooo  entrer en ton.....

6 :3-3---3-3---3-3---3-3---55555555----7----8-|
5 :3-3---3-3---3-3---3-3---55555555----7----8-|
4 :-------------------------------------------|
3 :-------------------------------------------|
2 :-------------------------------------------|
1 :-------------------------------------------|


Chorus
                           (a noter, la dernere fois qu'il
                            joue la chorus il ne joue pas la
                            section si dessous)
6 :----------------------------------5------3v---0----|
5 :0---3---5---3---5--------2--3--2------2------------|
4 :0---5---7---5---7----------------------------------|
3 :0---5---7---5---7----------------------------------|   x5
2 :---------------------------------------------------|
1 :---------------------------------------------------|


6 :--------------------------5--0--5--3--0--3--0------------|
5 :---------555--5--3--0--3--5--0--5--3--0--3--0------------|
4 :---------777--7--5--0--5---------------------------------|
3 :---------777--7--5--0--5---------------------------------|
2 :---------------------------------------------------------|
1 :---------------------------------------------------------|

Verse


6 :0-2-0-3-0-5----------------------|
5 :------------2-0-3-0-5-0----5-----|v
4 :------------------------3--------|
3 :---------------------------------|   x3
2 :---------------------------------|
1 :---------------------------------|

Bridge:

...par le parfum           ...de ta sensualitee

6 :-------3-3-----3-3-----------------5--3-|
5 :-------3-3-----3-3-----3-3---3-0-3-5--3-|
4 :-----------------------5-5---5-0-5------|
3 :-----------------------5-5---5-0-5------|
2 :----------------------------------------|
1 :----------------------------------------|


Pre-Chorus :

Laisse-moi Laisse-moi...   ooooooo  entrer en ton.....

6 :3-3---3-3---3-3---3-3---55555555----7----8-|
5 :3-3---3-3---3-3---3-3---55555555----7----8-|
4 :-------------------------------------------|
3 :-------------------------------------------|
2 :-------------------------------------------|
1 :-------------------------------------------|


Chorus:


6 :----------------------------------5------3v---0----|
5 :0---3---5---3---5--------2--3--2------2------------|
4 :0---5---7---5---7----------------------------------|
3 :0---5---7---5---7----------------------------------|   x5
2 :---------------------------------------------------|
1 :---------------------------------------------------|

La derniere fois du deuxieme chorus il joue le ceci avant d'entrer dans le solo :

6 :---0-3v--0-3v--0-3v----|
5 :-----------------------|
4 :-----------------------|
3 :-----------------------|
2 :-----------------------|
1 :-----------------------|

Solo

J'ai pas figure le solo et j'ai pas l'intention de le faire, cepedant voici quoi jouer 
le background pendant que la lead guitar solo :

6 :000000000000000-------------------33333333333333-------------------|
5 :000000000000000--111111111111111--33333333333333--33333333333333---|
4 :-----------------333333333333333------------------55555555555555---|
3 :-------------------------------------------------------------------|  x2
2 :-------------------------------------------------------------------|
1 :-------------------------------------------------------------------|

Verse


6 :0-2-0-3-0-5----------------------|
5 :------------2-0-3-0-5-0----5-----|v
4 :------------------------3--------|
3 :---------------------------------|   x8
2 :---------------------------------|
1 :---------------------------------|


Pre-Chorus :

Laisse-moi Laisse-moi...   ooooooo  entrer en ton.....
6 :3-3---3-3---3-3---3-3---55555555----7----8-|
5 :3-3---3-3---3-3---3-3---55555555----7----8-|
4 :-------------------------------------------|
3 :-------------------------------------------|
2 :-------------------------------------------|
1 :-------------------------------------------|


Chorus:


6 :----------------------------------5------3v---0----|
5 :0---3---5---3---5--------2--3--2------2------------|
4 :0---5---7---5---7----------------------------------|
3 :0---5---7---5---7----------------------------------|   x5
2 :---------------------------------------------------|
1 :---------------------------------------------------|

Outro:


6 :--------------------------5--0--5--3--0--3--0------------|
5 :---------555--5--3--0--3--5--0--5--3--0--3--0------------|
4 :---------777--7--5--0--5---------------------------------|
3 :---------777--7--5--0--5---------------------------------|
2 :---------------------------------------------------------|
1 :---------------------------------------------------------|

Svp "rate" mon tab :)

Julien DuPont
Tap to rate this tab
 
# A B C D E F G H I J K L M N O P Q R S T U V W X Y Z