Guitaretab - guitar tabs
Song name
# A B C D E F G H I J K L M N O P Q R S T U V W X Y Z

Sepultura - Hungry tab

This is my my first tab so it may not be perfect. I'm sure the timing
is off but if you know the song you can figure it out.


----------------------------------------------------------------------------
			     HUNGRY - sepultura
----------------------------------------------------------------------------
Tabbed by: ThrashTillDeth
Email: Metal_in_my_brain@yahoo.com

Tuning: Standard 



Solo 1

e|----------------------------------------------------------|
B|----------------------------------------------------------|
G|---------------------------------12-11----14-12-11--------|
D|-----------------10h12h13-12~----------12----------13p12~-|
A|---------9h10h12------------------------------------------|
E|-8h10h11--------------------------------------------------|

e|-------------------------------------------------------------------------|
B|-------------------------------------------------------------------------|
G|----------11h12p11----------11h14p11----------11h12p11----------11h14p11-|
D|-10h12h13----------10h12h13----------10h12h13----------10h12h13----------|
A|-------------------------------------------------------------------------|
E|-------------------------------------------------------------------------|

e|---------------------------------------|
B|---------------------------------------|
G|----------11h12h14---------------------|
D|-10h12h13----------10h12h13------------|
A|----------------------------9h10h12-9~-|
E|---------------------------------------|

e|-------------------------------------------------------------------------|
B|-------------------------------------------------------------------------|
G|-/8--8-8-8-8-8-7----/5--5-5-5-5-5-4----/8-7\-/8-7--/10-12--\-------------|
D|-------------------------------------------------------------------------|
A|-/6--6-6-6-6-6-5----/3--3-3-3-3-3-2----/6-5\-/6-5--/9--10--\-------------|
E|-------------------------------------------------------------------------|

[ Tab from: http://www.guitaretab.com/s/sepultura/128460.html ]
 
Solo 2 
        x4       x4
e|-161312-|-171312-|-161312------161312------161312------16\-|
B|--------|--------|-------121415------121415------121415----|
G|--------|--------|-----------------------------------------|
D|--------|--------|-----------------------------------------|
A|--------|--------|-----------------------------------------|
E|--------|--------|-----------------------------------------|

e|-/16-13-16-12\--/1616161616161616\--191716191716191716191716--16---------|
B|------------------------------------------------------------18--18171517\|
G|-------------------------------------------------------------------------|
D|-------------------------------------------------------------------------|
A|-------------------------------------------------------------------------|
E|-------------------------------------------------------------------------|

e|-------------------------------------------------------|
B|-------------------------------------------------------|
G|-/9~7-9-[9]b10~--/7-9p7---7----------------------------|
D|------------------------9---9p7-9p7----7---------------|
A|------------------------------------10---10-7-7-7\5----|
E|----------------------------------------------------5\-|

e|-------------------------------------------12-15p12--12--------12-12-----|
B|-----------------------------------10-12/15--------15--15p12-15---15b17--|
G|-------------------------9-11-12-12--------------------------------------|
D|---------------9-10-12-12------------------------------------------------|
A|---10-12p10--12----------------------------------------------------------|
E|-12--------12------------------------------------------------------------|
 PM[--------------------------] 

       T     T     T     T x5
e|-12h15p12h15h12h15p12h15p-|
B|--------------------------|
G|--------------------------|
D|--------------------------|
A|--------------------------|
E|--------------------------|

Slide into the first note and slowly bend the string until you stop.
It's a full bend.



e|-/24-/24-/24-----|
B|-----------------|
G|-----------------|
D|-----------------|
A|-------------14\-|
E|-------------14\-|
Related for Hungry tab
Advertisement will be closed in 10 seconds