Song name
# A B C D E F G H I J K L M N O P Q R S T U V W X Y Z

Serj Tankian - Charades tab

this is kind of an intro besides the crazy piano mashing. it still gets the job done


e|-------------------------------------------------------------|
b|-------------------------------------------------------------|
g|-------------------------------------------------------------|
D|-------------------------------------------------------------|
A|----5-7-8---5-7-8---5h7-8-5h7-8---5-7-8-7---5-7-8---5-7-8-9--|
D|--0-------0-------0-------------0---------0-------0----------|

e|-------------------------------------------------------------|
b|-------------------------------------------------------------|
g|-------------------5--3--0-2-0-------------------------------|
D|-------------------------------3-2-----------777-55-777------|
A|----5-7-8---5-7-8----------------------------555-33-777------|
D|--0-------0-----------5----3--------0--0--0--555-33-777------|

e|-------------------------------------------------------------|
b|-------------------------------------------------------------|
g|-----------------5--3--0-2-0---------------------------------|
D|-----------------------------3-2-----------777-55-777--------|
A|----------5h7-8----------------------------555-33-777--------|
D|--0--0--0-----------5-------------0--0--0--555-33-777--------|

e|-------------------------------------------------------------|
b|-------------------------------------------------------------|
g|-------------------------------------------------------------|
D|--0--0--0--777-55-777----------------------------------------|
A|--0--0--0--555-33-777----------------------------------------|
D|--0--0--0--555-33-777---0------------------------------------|

Tap to rate this tab
# A B C D E F G H I J K L M N O P Q R S T U V W X Y Z