Song name
# A B C D E F G H I J K L M N O P Q R S T U V W X Y Z

Ses - Sick Of You tab

 
  This is one of the best underground bands ever i no you'll like the way it
sounds. This is a band that basicly no one has heard of they just started, but
don't let that fool you becouse they're very good.This is their first song,
enjoy!

    Artist:S.E.S 
(Ryann Redon, Ryan Siwinski, Sean Thornton, Brady Ridenour)
    Song:Sick Of You
    
   Tuneing:standered  


       Repeat around 8 times
 e:---------------------------------------------|
 B:---------------------------------------------|
 G:---------------------------------------------|
 D:-7-7-7-7-7-7-7-7---------7-7-7-7-7-7-7-7-----|
 A:-5-5-5-5-5-5-5-5-7-7-7-5-5-5-5-5-5-5-5-5-7-5-|
 E:-----------------5-5-5-3-----------------5-3-|  



 e:---------------------------------------------------------|
 B:---------------------------------------------------------|
 G:---------------------------------------------------------|
 D:---------------------------------------------------------|
 A:-7-7-7-7-7-7-7-5-5-5-5-5-5-5-4-4-4-4-4-4-4-5-5-5-5-5-5-5-|
 E:-5-5-5-5-5-5-5-3-3-3-3-3-3-3-2-2-2-2-2-2-2-3-3-3-3-3-3-3-|

     
     Play this 4 times 
 e:----------------------------|
 B:----------------------------|
 G:----------------------------|
 D:-2-2-2-2-0-0-0-0------------|
 A:-0-0-0-0-2-2-2-2-------3----|
 E:-----------------2-2-2-1----|

    Repeat tabs above 4 times

 e:-------------|
 B:-------------|
 G:-------------|
 D:-------------|
 A:-5---------5-|
 E:-3---------3-|
Tap to rate this tab
 
# A B C D E F G H I J K L M N O P Q R S T U V W X Y Z