Song name
# A B C D E F G H I J K L M N O P Q R S T U V W X Y Z

Set It Off - Say My Name tab

Artist: Set It Off
Song: Say My Name by Destiny's Child (Cover)
Tabbed by: Kai Stracke

Set It Off - Say My Name by Destiny's Child - Glamour Kills 90's Cover Series
http://www.youtube.com/watch?v=dlR9tQHtw7U


Standard D Tuning (D-G-C-F-A-D)

Intro + Verse

d|-----------X------------------------------------------------|
A|-----------X------------X------------X----------------------|
F|------7----7------------X------------X-------5--------6-----| x7
C|----7---7--7-------8----8-------5----5-----5---5----5---5---|
G|--5--------5-----8---8--8-----5---5--5---3--------4---------|
d|---------------6--------6---3--------3----------------------|

Pre-Chorus

d|----------------------------------|
A|----------------------------------|
F|--7-7---------------5-5-5--6-6-6--| x2
C|--7-7--7-8-8---5-5--5-5-5--5-5-5--|
G|--5-5--7-8-8---5-5--3-3-3--4-4-4--|
d|-------5-6-6---3-3----------------|

Chorus

d|-----------------------------------------------------------|
A|-----------------------------------------------------------|
F|--7-7-7-7-7-7----------------------------5-5-5-5--6-6-6-6--| x4
C|--7-7-7-7-7-7--8-8-8-8-8-8--5-5-5-5-5-5--5-5-5-5--5-5-5-5--|
G|--5-5-5-5-5-5--8-8-8-8-8-8--5-5-5-5-5-5--3-3-3-3--4-4-4-4--|
d|---------------6-6-6-6-6-6--3-3-3-3-3-3--------------------|

Verse

d|-----------X------------------------------------------------|
A|-----------X------------X------------X----------------------|
F|------7----7------------X------------X-------5--------6-----| x4
C|----7---7--7-------8----8-------5----5-----5---5----5---5---|
G|--5--------5-----8---8--8-----5---5--5---3--------4---------|
d|---------------6--------6---3--------3----------------------|

Pre-Chorus

d|----------------------------------|
A|----------------------------------|
F|--7-7---------------5-5-5--6-6-6--| x2
C|--7-7--7-8-8---5-5--5-5-5--5-5-5--|
G|--5-5--7-8-8---5-5--3-3-3--4-4-4--|
d|-------5-6-6---3-3----------------|

Chorus

d|-----------------------------------------------------------|
A|-----------------------------------------------------------|
F|--7-7-7-7-7-7----------------------------5-5-5-5--6-6-6-6--| x4
C|--7-7-7-7-7-7--8-8-8-8-8-8--5-5-5-5-5-5--5-5-5-5--5-5-5-5--|
G|--5-5-5-5-5-5--8-8-8-8-8-8--5-5-5-5-5-5--3-3-3-3--4-4-4-4--|
d|---------------6-6-6-6-6-6--3-3-3-3-3-3--------------------|

Verse/Bridge

d|-----------X------------------------------------------------|
A|-----------X------------X------------X----------------------|
F|------7----7------------X------------X-------5--------6-----| x4
C|----7---7--7-------8----8-------5----5-----5---5----5---5---|
G|--5--------5-----8---8--8-----5---5--5---3--------4---------|
d|---------------6--------6---3--------3----------------------|

Pre-Chorus

d|----------------------------------|
A|----------------------------------|
F|--7-7---------------5-5-5--6-6-6--| x2
C|--7-7--7-8-8---5-5--5-5-5--5-5-5--|
G|--5-5--7-8-8---5-5--3-3-3--4-4-4--|
d|-------5-6-6---3-3----------------|

Chorus

d|-----------------------------------------------------------|
A|-----------------------------------------------------------|
F|--7-7-7-7-7-7----------------------------5-5-5-5--6-6-6-6--| x4
C|--7-7-7-7-7-7--8-8-8-8-8-8--5-5-5-5-5-5--5-5-5-5--5-5-5-5--|
G|--5-5-5-5-5-5--8-8-8-8-8-8--5-5-5-5-5-5--3-3-3-3--4-4-4-4--|
d|---------------6-6-6-6-6-6--3-3-3-3-3-3--------------------|
Tap to rate this tab
# A B C D E F G H I J K L M N O P Q R S T U V W X Y Z