Song name
# A B C D E F G H I J K L M N O P Q R S T U V W X Y Z

Set Sail - Skin And Bones tab

This is indeed my very first tab.
It is played CAPO 4 

To play, continually pluck the low E with your thumb, maintaining a steady 8 count 
beat per measure. The remaining I play with my index and middle fingers. Occasionally the ring.
                                                                                          
     Intro:                                                                                      
                                
e|----------------|----------------|----------------|----------------|
B|-----3----------|----------------|-----3----------|----------------|
G|--2/4---2-------|------------2---|--2/4---2-------|--------------2-|
D|------------4---|-----5--4-------|------------4---|-----5---4-5----|
A|----------------|--5h7-----------|----------------|--5h7-----------|
E|0-0-0-0-0-0-0-0-|0-0-0-0-0-0-0-0-|0-0-0-0-0-0-0-0-|0-0-0-0-0-0-0-0-|

                                                                                           
     Verse:                                                                                      
                                
e|------0---------|-----------0----|------0---------|-----------0----|
B|3-------3-------|--------3-----3-| 3-------3------|--------3-----3-|
G|----3--3--33—3--|2---2—----2--2--|----3--3--33—3--|2---2—----2--2--|
D|---2--2--2--2---|---0-----0--0---|---2--2--2--2---|---0-----0--0---|
A|----------------|----------------|----------------|----------------|
E|0—0-0-0-0-0-0-0-|0-0-0—0-0-0-0-0-|0-0-0-0-0-0-0-0-|0-0-0-0-0-0-0-0-|

Chorus:
Repeat as necessary
        D                G      
e|-------0--------|-------0--------|
B|-------3--------|-------3--------|
G|-------2--------|-------0--------|
D|-------0--------|-------0--------|
A|-------0--------|-------2--------|
E|-------x--------|-------x--------|

Here’s the video I modeled it after
https://www.youtube.com/watch?v=ZoQT5eSDhLk
Tap to rate this tab
 
# A B C D E F G H I J K L M N O P Q R S T U V W X Y Z