Song name
# A B C D E F G H I J K L M N O P Q R S T U V W X Y Z

Settle The Score - Thinking Of You tab

Song: Thinking Of You
Artist: Katy Perry
Album: One Of The Boys
Tabber: DJRPlaysGuitar
Tuning: Standard

Well, the first tab I found for this had the right idea, but I think these sound better

Chords used
e|----------9--------9--|
B|----------9--------10-|
G|--9---6---9----8---11-|
D|--9---7---11---9---11-|
A|--7---7---11---9---9--|
E|------5---9----7------|
    E   A  C#m   B  F#m

Note: There is another guitar in the song that I haven't figured out yet.
And figure out the strumming pattern for yourselves.

Verse 1
e|-----------------------------------------9---------------------|
B|-----------------------------------------9---------------------|
G|--9-------------8------------------------9---------------6-----|
D|--9-------------9-----------------------11---------------7-----|
A|--7-------------9-----------------------11---------------7-----|
E|----------------7------------------------9---------------5-----|
Comparasions are easily done, one you've had a taste of perfection. Like an

-------------------------------------------9----------------------|
-------------------------------------------9----------------------|
----9-------------8------------------------9----------------6-----|
----9-------------9-----------------------11----------------7-----|
----7-------------9-----------------------11----------------7-----|
------------------7------------------------9----------------5-----|
  apple hanging from a tree, i pick the ripest one & still got the seed

Pre Chorus

--------------9----------------------------9--------------------9----|
--------------9----------------------------9--------------------10---|
-8------------9--------------6----8--------9--------------6-----11---|
-9------------11-------------7----9--------11-------------7-----11---|
-9------------11-------------7----9--------11-------------7-----9----|
-7------------9--------------5----7--------9--------------5----------|
You said move on, where do I go?  I guess second best is all I will know


Chorus
-------------------------------------------------9--------------------------------------|
-------------------------------------------------9--------------------------------------|
------------9------------------8-----------------9---------------6-------------8------9-|
------------9------------------9-----------------11--------------7-------------9------9-|
------------7------------------9-----------------11--------------7-------------9------7-|
-------------------------------7-----------------9---------------5-------------7--------|
Cause when I'm with him, I am thinking of you, thinking of you. What would you do if you 
the one

----------------------------9--------------------------------------9--|
----------------------------9--------------------------------------10-|
---------8------------------9------------------------6-------------11-|
---------9------------------11-----------------------7-------------11-|
---------9------------------11-----------------------7-------------9--|
---------7------------------9------------------------5----------------|
who was spending the night. oh how I wish that I was looking into your eye

Bridge
--9---------------------------------------9----------------------9-----------------------------|
--9---------------------------------------9----------------------9-----------------------------|
--9----------8---------6------8-----------9----8-----6---8-------9------8------------------6---|
--11---------9---------7------9-----------11---9-----7---9-------11-----9------------------7---|
--11---------9---------7------9-----------11---9-----7---9-------11-----9------------------7---|
--9----------7---------5------7-----------9----7-----5---7-------9------7------------------5---|
The best and oh I do regret. How could I let myself let you go? And now, now the lessons learned,

--------------------------------------------------------|
--------------------------------------------------------|
-8--------------------6-------8-----------6----------8--|
-9--------------------7-------9-----------7----------9--|
-9--------------------7-------9-----------7----------9--|
-7--------------------5-------7-----------5----------7--|
 I touched and I was burned. Oh, I think you should know


Song Order-
Verse 1
Pre-Chorus
Chorus
Verse 2
Bridge
Chorus x2


It wouldn't suprise me if there are any mistakes, seeing as it's my first tab.
But I think it sounds right.
Enjoy.
Tap to rate this tab
# A B C D E F G H I J K L M N O P Q R S T U V W X Y Z