Song name
# A B C D E F G H I J K L M N O P Q R S T U V W X Y Z

Seven Collar T-shirt - Wild Child Here For You tab

Help us improve GuitareTab! Take a short survey!
Seven Collar T-shirt : Wild Child (Here For You)
Tabbed by            : Hariz05
Tuning               : Standard (EADGBe)

!------------------------------------------------------------!
|                                                            |
| Alright guys, I tabbed this at 4 in the MORNING.           |
| Therefore, I'm very sorry if there're errors.              |
|                                                            |
| I had my headphone (a good one) on.                        |
| So I tab this the way I hear it (ear transcribed).         |
| Which means, there're some part which I'm not sure.        |
|                                                            |
| But I think I did a good job.                              |
| Just note that some parts are played twice (x2), watch for |
| strumming, and most importantly picking (x5, x6, x8, x16). |
|                                                            |
| Listen to the song carefully, and you'll get it.           |
|                                                            |
| I will post a video cover on YouTube soon.                 |
|                                                            | 
!------------------------------------------------------------!

[INTRO]

Guitar 1
e|-3--------------------------------------|
B|-4--------------------------------------|
G|-5-Strum--------------------------------|
D|-5--------------------------------------|
A|-3--------------------------------------|
E|----------------------------------------|

Guitar 2
e|-------11--------11--------11--------11-|
B|----13--------13--------13--------13----|
G|-12-------12--------12--------12--------|
D|----------------------------------------|
A|----------------------------------------|
E|----------------------------------------|\
                                            x2
e|-------11----11-------------------------|/
B|----------------------------------------|
G|-13-12----12----12--13-12-13-12-12------|
D|----------------------------------------|
A|----------------------------------------|
E|----------------------------------------|

[VERSE]

  "Moving on my tunes... I can't get over..."
e|-------11*---------------16-------------|x2
B|----13----------------------16----------|
G|-12-------------------------------------|
D|----------------------------------------|
A|----------------------------------------|
E|----------------------------------------|

  "AaAaAAaa..."
e|----------------------------------------|
B|----------------------------------------|
G|-13-12-10-12-10-12-x5-12*---------------|
D|----------------------------------------|
A|----------------------------------------|
E|----------------------------------------|

Repeat [VERSE]

End of [VERSE]:

Guitar 1
e|-3--------------------------------------|
B|-4--------------------------------------|
G|-5-Strum--------------------------------|
D|-5--------------------------------------|
A|-3--------------------------------------|
E|----------------------------------------|

[CHORUS]

e|----------------------------------------|
B|----------------------------------------|
G|-55555-77777-88-10-8-10-12-13-----------|
D|----------------------------------------|
A|-33333-55555-66--8-6--8-10-11-----------|
E|----------------------------------------|\
                                            x2
e|----------------------------------------|/
B|----------------------------------------|
G|-15-13-1212121212-15-13-1212121212------|
D|----------------------------------------|
A|-13-11-1010101010-13-11-1010101010------|
E|----------------------------------------|

e|----------------------------------------|
B|----------------------------------------|
G|-1313131313131313-15151515/20202020-----|
D|----------------------------------------|
A|-1111111111111111-13131313/18181818-----|
E|----------------------------------------|
  (Those are elevens' 11, not ones')

e|----------------------------------------|
B|----------------------------------------|
G|-15-13-1212121212-15-13-1212121212------|
D|----------------------------------------|
A|-13-11-1010101010-13-11-1010101010------|
E|----------------------------------------|

e|----------------------------------------|
B|----------------------------------------|
G|-1313131313131313-15*-------------------|
D|----------------------------------------|
A|-1111111111111111-13*-------------------|
E|----------------------------------------|
  (Those are elevens' 11, not ones')

[INTERLUDE]

Guitar 1 [Distorted]
e|-------------11*-------------11*--------|x2
B|----13----13----------------------------|
G|-12----12--------13-12-13-12------------|
D|----------------------------------------|
A|----------------------------------------|
E|----------------------------------------|

e|-------------11-------------------------|
B|----------------------------------------|
G|-13-12-13-12----------------------------|
D|----------------------------------------|
A|----------------------------------------|
E|----------------------------------------|

[+small delay effects]
e|--------------------------18------------|x2
B|----------------------------------------|
G|-12x8-13x8-15x5-17x8-20x8----20*--------|
D|-----(fast picking)---------------------|
A|----------------------------------------|
E|----------------------------------------|

Guitar 2
[CHORUS]

e|----------------------------------------|
B|----------------------------------------|
G|-55555-77777-88-10-8-10-12-13-----------|
D|----------------------------------------|
A|-33333-55555-66--8-6--8-10-11-----------|
E|----------------------------------------|\
                                            x2
e|----------------------------------------|/
B|----------------------------------------|
G|-15-13-1212121212-15-13-1212121212------|
D|----------------------------------------|
A|-13-11-1010101010-13-11-1010101010------|
E|----------------------------------------|

e|----------------------------------------|
B|----------------------------------------|
G|-1313131313131313-15151515/20202020-----|
D|----------------------------------------|
A|-1111111111111111-13131313/18181818-----|
E|----------------------------------------|
  (Those are elevens' 11, not ones')

e|----------------------------------------|
B|----------------------------------------|
G|-15-13-1212121212-15-13-1212121212------|
D|----------------------------------------|
A|-13-11-1010101010-13-11-1010101010------|
E|----------------------------------------|

e|----------------------------------------|
B|----------------------------------------|
G|-1313131313131313-15151515/20202020-----|
D|----------------------------------------|
A|-1111111111111111-13131313/18181818-----|
E|----------------------------------------|
  (Those are elevens' 11, not ones')

e|----------------------------------------|
B|----------------------------------------|
G|-15-13-12-15-1213---15-13-12-15-12------|
D|----------------------------------------|
A|-13-11-10-11-1011---13-11-10-11-10------|
E|----------------------------------------|

[OUTTR0]
e|-1313131313-1515151515151515-1717171717-2020202020202020-|
B|---------------------------------------------------------|
G|-1111111111-1313131313131313-1515151515-1818181818181818-|
D|---------------------------------------------------------|
A|---------------------------------------------------------|
E|---------------------------------------------------------|

e|----------------------------------------|
B|----------------------------------------|
G|-15-13-12-15-121212-15-13-12-15-121212--|
D|----------------------------------------|
A|-13-11-10-11-101010-13-11-10-11-101010--|
E|----------------------------------------|

e|-1313131313-1515151515151515-1717171717-2020202020-15-|
B|------------------------------------------------------|
G|-1111111111-1313131313131313-1515151515-1818181818-13-|
D|------------------------------------------------------|
A|------------------------------------------------------|
E|------------------------------------------------------|

-End-
Related for Wild Child Here For You tab