Song name
# A B C D E F G H I J K L M N O P Q R S T U V W X Y Z

Seven Mary Three - When You Gonna Make Up Your Mind tab

#----------------------------------PLEASE NOTE--------------------------------#
#This file is the author's own work and represents their interpretation of the#
#song. You may only use this file for private study, scholarship, or research.#
#-----------------------------------------------------------------------------#

Date: Fri, 17 Oct 1997 13:54:45 -0600
From: sorebenj 
Subject: TAB:"When you gonna make up your mind", by 7Mary3

"When You Gonna Make Up Your Mind"
By:Seven Mary Three (7Mary3)
From:Rock Crown
Tabbed by: Benji Sorenson

Verse:
e:-----4--4----2--2--2--0----------------------------|
B:-----3--3----3--3--3-----3--------2----------------|
G:-----2--2----2--2--2------------0------------------|
D:-----0--0----0--0--0-------------------------------|
A:---------------------------------------------------|
E:-----------------------------3---------2-----------|

Oh yeah
She says, we can't, tell them
Oh yeah
She wants, up front,
I can't, do that


Chorus:
D/F#           G             A    Aadd4
when you gonna make up your mind
D/F#           G             A    Aadd4
when you gonna make up your mind
D/F#           G             A    Aadd4
when you gonna make up your mind
          D/F#             G        A(one strum let ring for 1 measure)
cause you know that I have made up mine

Verse riff:

Oh yeah
She's got, backup,
boyfriend, I'm him

Chorus 2X then finish with:

Verse riff 1X

Oh Yeah.........

Chords:
D/F#      G       A     Aadd4
-2--- ----3--- ---0--- ---0-|
-3--- ----3--- ---2--- ---3-|
-2--- ----0--- ---2--- ---2-|
-0--- ----0--- ---2--- ---2-|
-x--- ----x--- ---0--- ---2-|
-2--- ----3--- ------- -----|
Tap to rate this tab
 
# A B C D E F G H I J K L M N O P Q R S T U V W X Y Z