Song name
# A B C D E F G H I J K L M N O P Q R S T U V W X Y Z

Seven Mary Three - Gone Away chords

Highlighted       Show chord diagrams
'GONE AWAY'
SEVEN MARY THREE from the album "ROCKCROWN"
Transcribed by  Jason Leonard


Chords:

	A   	E   	F#
      --0--   --0--   --2--
      --2--   --0--   --2--
      --2--   --1--   --3--
      --2--   --2--   --4--
      --0--   --2--   --4--
      -----   --0--   --2--


Intro:  0:00- 0:13
Guitar Rhy. 1  (2 times)
----------9--------------------------------|
--------------12~10-------9--------10------|
9~11-11~9---9-------11~9---------9----9----|
------------------------------11------11~9-|
-------------------------------------------|
-------------------------------------------|


Verse:  0:14- 0:37

A            E                F#
It's not the clothes that she borrows

A                 E           F#
just call me out, you know I'll follow

A                 E    F#
Back thru the backdoor into June

A              E      F#
Luck will sleep the October June

0:38- 0:50
Guitar Rhy. 1  (2 times)
----------9--------------------------------|
--------------12~10-------9--------10------|
9~11-11~9---9-------11~9---------9----9----|
------------------------------11------11~9-|
-------------------------------------------|
-------------------------------------------|

Verse:  0:51- 1:40

A              E              F#
Sometimes in deep thought I'm 31

A                 E F#
she's wanting kids, sounds like fun

A                 E     F#
I'll teach them to sing along

A              E        F#
sure beats the end of a smoking gun

A                   E                F#
And I know that God exists because I feel him sometimes

A                     E            F#
When she takes up the sheets or my telephone lines,

A                E           F#
but when I'm home she says: "Baby you're a lie..."

A                  E            F#
"You're not really here, you've gone away"

1:41- end

Guitar Rhy. 1  (4 times)
----------9--------------------------------|
--------------12~10-------9--------10------|
9~11-11~9---9-------11~9---------9----9----|
------------------------------11------11~9-|
-------------------------------------------|
-------------------------------------------|



(c)1998 Seven Mary Three Music, BMI. All rights reserved. 
Administered by EMI Publishing. Lyrics reprinted by permission.
Tap to rate this tab
 
# A B C D E F G H I J K L M N O P Q R S T U V W X Y Z