Song name
# A B C D E F G H I J K L M N O P Q R S T U V W X Y Z

Sevendust - Praise tab

Band - Sevendust
Song - Praise
Album - Animosity (2001)

Gtr I (B F# B E G# C#) - 'Gtr. I'
Gtr II (B F# B E G# C#) - 'Gtr. II'
Gtr III (B F# B E G# C#) - 'Gtr. III'
Gtr IV (B F# B E G# C#) - 'Untitled'


 Intro
  Moderately Fast Q=132
    N.C.(E5)
 4/4
  Gtr I
                                                                PM----|
  E E E E E E E E   E E E E E E E E   E E E E E E E E   E E E E E E E E
|-----------------|-----------------|-----------------|-----------------|
|-----------------|-----------------|-----------------|-----------------|
|-----------------|-----------------|-----------------|-----------------|
|-------------3---|-3-----------3---|-3-----------3---|-3---------------|
|-----------------|-----------------|-----------------|-------2---------|
|-0-2---2---2---2-|---2---2---2---2-|---2---2---2---2-|---2---2-0-2-0-2-|


  D5E5  (E5)
  Gtrs I, II
  E E E E E E E E   E E E E E E E E   E E E E E E E E   E E E E H
|-----------------|-----------------|-----------------|--------------|
|-----------------|-----------------|-----------------|--------------|
|-----------------|-----------------|-----------------|--------------|
|-------------3---|-3-----------3---|-3-----------3---|-3------------|
|-0-2-------------|-----------------|-----------------|--------------|
|-0-2---2---2---2-|---2---2---2---2-|---2---2---2---2-|---2---2------|


    D5E5
    E E E E E E a E E   a E E E E E E a E E
||--------------------|---------------------|
||o-------------------|---------------------|
||--------------------|---------------------|
||----------------3---|---3-------------3---|
||o-0-2---2---2---x-2-|---x-2---2---2---x-2-|
||--0-2---2---2-2h3-2-|-2h3-2---2---2-2h3-2-|


                                  D5E5D5E5
                                  PM----|
  a E E E E E E a E E   a E E E E E E E E
|---------------------|----------------------||
|---------------------|---------------------o||
|---------------------|----------------------||
|---3-------------3---|---3------------------||
|---x-2---2---2---x-2-|---x-2---2-0-2-0-2---o||
|-2h3-2---2---2-2h3-2-|-2h3-2---2-0-2-0-2----||


 1st Verse
    N.C.(E5)
  Gtrs I, II
  PM------------------------------------------------------------------|
  E E E E E E E E   E E E E E E E E   E E E E E E E E   E E E E E E E E
|-----------------|-----------------|-----------------|-----------------|
|-----------------|-----------------|-----------------|-----------------|
|-----------------|-----------------|-----------------|-----------------|
|-------------3---|-3-----------3---|-3-----------3---|-3---------------|
|-----------------|-----------------|-----------------|-----------------|
|-0-2---2---2---2-|---2---2---2---2-|---2---2---2---2-|---2---2-0-2-0-2-|


        PM------------------------------------------------------|
  E E E E E E E E   E E E E E E E E   E E E E E E E E   E E E E H
|-----------------|-----------------|-----------------|--------------||
|-----------------|-----------------|-----------------|--------------||
|-----------------|-----------------|-----------------|--------------||
|-------------3---|-3-----------3---|-3-----------3---|-3------------||
|-0-2-------------|-----------------|-----------------|--------------||
|-0-2---2---2---2-|---2---2---2---2-|---2---2---2---2-|---2---2------||


   2nd and 3rd Verses
    D5E5
    Gtr I
    E E E E E E    E E      E E E E E E    E E
||---------------------|-----------------------|
||o---------------/6---|---/6-------------/6---|
||---------------------|-----------------------|
||---------------------|-----------------------|
||o-0-2---2---2------2-|------2---2---2------2-|
||--0-2---2---2------2-|------2---2---2------2-|
|
|   Gtr II
|   E E E E E E a  E E   a  E E E E E E a  E E
||---------------------|-----------------------|
||o--------------------|-----------------------|
||---------------------|-----------------------|
||-----------------3---|----3--------------3---|
||o-0-2---2---2----x-2-|----x-2---2---2----x-2-|
||--0-2---2---2-2h=3-2-|-2h=3-2---2---2-2h=3-2-|


                                     D5E5D5E5
                                     PM----|
     E E E E E E    E E      E E E E E E E E
|-----------------------|----------------------|
|---/6-------------/6---|---/6-----------------|
|-----------------------|----------------------|
|-----------------------|----------------------|
|------2---2---2------2-|------2---2-0-2-0-2---|
|------2---2---2------2-|------2---2-0-2-0-2---|
|
|                                    PM----|
| a  E E E E E E a  E E   a  E E E E E E E E
|-----------------------|----------------------|
|-----------------------|----------------------|
|-----------------------|----------------------|
|----3--------------3---|----3-----------------|
|----x-2---2---2----x-2-|----x-2---2-0-2-0-2---|
|-2h=3-2---2---2-2h=3-2-|-2h=3-2---2-0-2-0-2---|


  D5E5
  E E E E E E    E E      E E E E E E    E E
|--------------------|-----------------------|
|---------------/6---|---/6-------------/6---|
|--------------------|-----------------------|
|--------------------|-----------------------|
|-0-2---2---2------2-|------2---2---2------2-|
|-0-2---2---2------2-|------2---2---2------2-|
|
| E E E E E E a  E E   a  E E E E E E a  E E
|--------------------|-----------------------|
|--------------------|-----------------------|
|--------------------|-----------------------|
|----------------3---|----3--------------3---|
|-0-2---2---2----x-2-|----x-2---2---2----x-2-|
|-0-2---2---2-2h=3-2-|-2h=3-2---2---2-2h=3-2-|


                                     D5E5D5E5
                                     PM----|
     E E E E E E    E E      E E E E E E E E
|-----------------------|--------------------||
|---/6-------------/6---|---/6---------------||
|-----------------------|--------------------||
|-----------------------|--------------------||
|------2---2---2------2-|------2---2-0-2-0-2-||
|------2---2---2------2-|------2---2-0-2-0-2-||
|
|                                    PM----|
| a  E E E E E E a  E E   a  E E E E E E E E
|-----------------------|--------------------||
|-----------------------|--------------------||
|-----------------------|--------------------||
|----3--------------3---|----3---------------||
|----x-2---2---2----x-2-|----x-2---2-0-2-0-2-||
|-2h=3-2---2---2-2h=3-2-|-2h=3-2---2-0-2-0-2-||


 Pre-Chorus
  E5    D5  E5  D5  Bb       Bb5         E5    D5  E5  D5  Bb
  Gtr III
                                   ~~~
  W                 Q.      E Q   +Q      W                 E E E E E E E E
|-----------------|---------------------|-----------------|-----------------
|-----------------|---------------------|-----------------|-----------------
|-----------------|-9------10-7---(7)---|-----------------|-9-9-9-9-9-9-9-9\
|-----------------|-x-------x-x---------|-----------------|-x-x-x-x-x-x-x-x-
|-----------------|-7-------8-5---(5)---|-----------------|-7-7-7-7-7-7-7-7\
|-----------------|---------------------|-----------------|-----------------
|
| Gtrs I, II
| PM------------|                         PM------------|
| E E E E E E E E   E  E E  E E E  E  E   E E E E E E E E   E E E E E E E E
|-----------------|---------------------|-----------------|-----------------
|-----------------|---------------------|-----------------|-----------------
|-----------------|---------------------|-----------------|-----------------
|-----------------|-8--8-8--8-----------|-----------------|-8-8-8-8-8-8-8-8-
|-2-2-2-0-0-2-2-0-|-7--7-7--7-8-8--8--8S|=2-2-2-0-0-2-2-0-|-7-7-7-7-7-7-7-7-
|-2-2-2-0-0-2-2-0-|-----------8-8--8--8S|=2-2-2-0-0-2-2-0-|-----------------


  E5    D5  E5  D5  Bb       Bb5         E5    D5  E5  D5  Bb
                                   ~~~
  W                 Q.      E Q   +Q      W                 E E E E E E E E
|-----------------|---------------------|-----------------|-----------------
|-----------------|---------------------|-----------------|-----------------
|-----------------|-9------10-7---(7)---|-----------------|-9-9-9-9-9-9-9-9\
|-----------------|-x-------x-x---------|-----------------|-x-x-x-x-x-x-x-x-
|-----------------|-7-------8-5---(5)---|-----------------|-7-7-7-7-7-7-7-7\
|-----------------|---------------------|-----------------|-----------------
|
| PM------------|                         PM------------|
| E E E E E E E E   E  E E  E E E  E  E   E E E E E E E E   E E E E E E E E
|-----------------|---------------------|-----------------|-----------------
|-----------------|---------------------|-----------------|-----------------
|-----------------|---------------------|-----------------|-----------------
|-----------------|-8--8-8--8-----------|-----------------|-8-8-8-8-8-8-8-8S
|-2-2-2-0-0-2-2-0-|-7--7-7--7-8-8--8--8S|=2-2-2-0-0-2-2-0-|-7-7-7-7-7-7-7-7S
|-2-2-2-0-0-2-2-0-|-8--8-8--8-8-8--8--8S|=2-2-2-0-0-2-2-0-|-8-8-8-8-8-8-8-8S


 Chorus
  $
  E5                D5
  Gtrs I, II
  E E E E E E E E   E E E E  E E E E
|-----------------|------------------|
|-----------------|------------------|
|-----------------|---------/9-9-7-9-|
|-2-2-2-2-2-2-2-2-|-0-0-0-0--x-x-x-x-|
|-2-2-2-2-2-2-2-2-|-0-0-0-0-/7-7-5-7-|
|-2-2-2-2-2-2-2-2-|-0-0-0-0----------|


  Bb5               D5/C
  E E E E E E E E    E  E  E  E  E  E  E E
|-----------------|------------------------|
|-----------------|------------------------|
|-----------------|------------------------|
|-8-8-8-8-8-8-8-8-|-12-12-12-12-12-12-12-0-|
|-8-8-8-8-8-8-8-8-|-10-10-10-10-10-10-10-0-|
|-8-8-8-8-8-8-8-8-|-10-10-10-10-10-10-10-0-|


  E5                D5
  E E E E E E E E   E E E E  E E E E
|-----------------|------------------|
|-----------------|------------------|
|-----------------|---------/9-9-7-9-|
|-2-2-2-2-2-2-2-2-|-0-0-0-0--x-x-x-x-|
|-2-2-2-2-2-2-2-2-|-0-0-0-0-/7-7-5-7-|
|-2-2-2-2-2-2-2-2-|-0-0-0-0----------|


                                  To Coda
  Bb5               Csus2
  E E E E E E E E    E  E  E  E  E  E  E  E
|-----------------|-------------------------||
|-----------------|-------------------------||
|-----------------|-------------------------||
|-8-8-8-8-8-8-8-8-|-12-12-12-12-12-12-12-12-||
|-8-8-8-8-8-8-8-8-|-10-10-10-10-10-10-10-10-||
|-8-8-8-8-8-8-8-8-|-10-10-10-10-10-10-10-10-||


  1.
  N.C.(E5)
  Gtr III
                    <
  W                 W                 +Q.     E E E E E   E E Q   H
|-----------------|-----------------|-------------------|------------------|
|-----------------|-----------------|---------5-5-6-6-6-|-6-5-5-----------o|
|-----------------|-7---------------|-(7)---------------|------------------|
|-----------------|-----------------|-------------------|------------------|
|-----------------|-----------------|-------------------|-----------------o|
|-----------------|-----------------|-------------------|------------------|
|
| Gtrs I, II                                                        Gtr I
| E E E E E E E E   E E E E E E E E    E  E E E E E E E   E E E E E E E E
|-----------------|-----------------|-------------------|------------------|
|-----------------|-----------------|-------------------|-----------------o|
|-----------------|-----------------|-------------------|------------------|
|-------------3---|-3-----------3---|--3------------3---|-3-----6---x-x-x--|
|-----------------|-----------------|-------------------|-------x---x-x-x-o|
|-0-2-x-2-x-2---2-|---2-x-2-x-2---2-|-----2-x-2-x-2---2-|---2---6---x-x-x--|


    2.
    E5                                          D5
    Gtr III
     Q    E      +E   +E   +E   E      +E        +Q     Q       +Q     Q
||--12----------------------------------------|-----------------------13---|
||o------15b17==(15)-(15)r(15)-15pb17r(15)b17-|-(15)---15b17---(15)--------|
||--------------------------------------------|----------------------------|
||--------------------------------------------|----------------------------|
||o-------------------------------------------|----------------------------|
||--------------------------------------------|----------------------------|
|
|    E E  E       E    E    E   E       E         E  E  E    E   E  E  E E
||--------------------------------------------|----------------------------|
||o-------------------------------------------|----------------------------|
||--------------------------------------------|-----------------/9--9--7-9-|
||---2-2--2-------2----2----2---2-------2-----|---0--0--0----0---x--x--x-x-|
||o--2-2--2-------2----2----2---2-------2-----|---0--0--0----0--/7--7--5-7-|
||---2-2--2-------2----2----2---2-------2-----|---0--0--0----0-------------|


  Bb5                                         Csus2
   Q    E      +E   +E   +E   E      +E        +Q      Q        +Q      Q
|-12----------------------------------------|--------------------------13---
|------15b17==(15)-(15)r(15)-15pb17r(15)b17-|-(15)----15b17----(15)---------
|-------------------------------------------|-------------------------------
|-------------------------------------------|-------------------------------
|-------------------------------------------|-------------------------------
|-------------------------------------------|-------------------------------
|
|  E E  E       E    E    E   E       E         E   E  E     E   E   E  E  E
|-------------------------------------------|-------------------------------
|-------------------------------------------|-------------------------------
|-------------------------------------------|-------------------------------
|--8-8--8-------8----8----8---8-------8-----|--12--12-12----12--12--12-12-12
|--8-8--8-------8----8----8---8-------8-----|--10--10-10----10--10--10-10-10
|--8-8--8-------8----8----8---8-------8-----|--10--10-10----10--10--10-10-10


                                Interlude
  Gtrs I, II                     Gtr III
  PM----------|
  E E E E E E E E   W             H     +E   E  E  E
|-----------------|----------||----------------------|
|-----------------|----------||o---------------------|
|-----------------|----------||--13----(13)----13----|
|-----------------|----------||--12----(12)----------|
|-2-2-2-0-0-2-2-0-|----------||o-11----(11)-11----11-|
|-2-2-2-0-0-2-2-0-|----------||----------------------|


                           1.,2.
         ~~~~~~~~
   E  E  Q   +E   E  E  E    H     +E   E  E  E
|-------------------------|------------------------|
|-------------------------|---------------15-------|
|-14----14--(14)----16----|-13----(13)-------------|
|-12----12--(12)----------|-12----(12)-------12----|
|----12----------14----16-|-11----(11)-11----------|
|-------------------------|------------------------|


                         3.
   ~~~~~~~~~~~~~~
   E  E  Q   +Q.    E      E  E  E  E  E  E  E  E
|----------------------||-------------------------|
|-15----15--(15)------o||-------------------------|
|----------------------||-14s13-13----13s14----14s|
|----12----------------||--x----12----------------|
|------------------11-o||-12s11----11-------12----|
|----------------------||-------------------------|


                        D.S. al Coda
                            Gtrs I, II
   E  E  E  E  E  E  E  E   E E E E H
|-------------------------|--------------||
|-------------------------|--------------||
|-16----16----16----16----|--------------||
|-------------------------|--------------||
|----14----14----14----14-|--------------||
|-------------------------|-0-2---2------||


    &
    E5                        D5
    Gtr IV
     E  E  E  E  E  E  E  E    E  E  E  E  E E E E
||--------------------------|----------------------|
||o-------------------------|----------------------|
||--13-13-13-13-13-13-13-13-|-14-14-14-14--9-9-7-9-|
||---x--x--x--x--x--x--x--x-|--x--x--x--x--x-x-x-x-|
||o-11-11-11-11-11-11-11-11-|-12-12-12-12--7-7-5-7-|
||--------------------------|----------------------|
|
|   Gtrs I, II
|    E  E  E  E  E  E  E  E    E  E  E  E  E E E E
||--------------------------|----------------------|
||o-------------------------|----------------------|
||--------------------------|-------------/9-9-7-9-|
||---2--2--2--2--2--2--2--2-|--0--0--0--0--x-x-x-x-|
||o--2--2--2--2--2--2--2--2-|--0--0--0--0-/7-7-5-7-|
||---2--2--2--2--2--2--2--2-|--0--0--0--0----------|


  Bb5                   Csus2
  E E  E  E  E  E E E    E  E  E  E  E  E  E  E
|---------------------|---------------------------||
|---------------------|--------------------------o||
|-9-9-10-10-10-10-7-7-|--9--9--9--9--9--9--9--9---||
|-x-x--x--x--x--x-x-x-|--x--x--x--x--x--x--x--x---||
|-7-7--8--8--8--8-5-5-|--7--7--7--7--7--7--7--7--o||
|---------------------|---------------------------||
|
| E E  E  E  E  E E E    E  E  E  E  E  E  E  E
|---------------------|---------------------------||
|---------------------|--------------------------o||
|---------------------|---------------------------||
|-8-8--8--8--8--8-8-8-|-12-12-12-12-12-12-12-12---||
|-8-8--8--8--8--8-8-8-|-10-10-10-10-10-10-10-10--o||
|-8-8--8--8--8--8-8-8-|-10-10-10-10-10-10-10-10---||


 Outro
  Gtrs I, II
  E E E E E E a E E   a E E E E E E a E E
|-------------------|---------------------|
|-------------------|---------------------|
|-------------------|---------------------|
|---------------3---|---3-------------3---|
|---------------x---|---x-------------x---|
|-0-2---2---2-2h3-2-|-2h3-2---2---2-2h3-2-|


  a E E E E E E a E E   a E E E E  H
|---------------------|-----------------*|
|---------------------|-----------------*|
|---------------------|-----------------*|
|---3-------------3---|---3-------------*|
|---x-------------x---|---x-------------*|
|-2h3-2---2---2-2h3-2-|-2h3-2-0-2\------*|




--------------------------------------------------------------------------------


Duration Legend
---------------
W - whole; H - half; Q - quarter; E - 8th; S - 16th; T - 32nd; X - 64th; a - acciaccatura
+ - note tied to previous; . - note dotted; .. - note double dotted
Uncapitalized letters represent notes that are staccato (1/2 duration)
Irregular groupings are notated above the duration line
Duration letters will always appear directly above the note/fret number it represents the
duration for.  Duration letters with no fret number below them represent rests.  Multi-
bar rests are notated in the form Wxn, where n is the number of bars to rest for.  Low
melody durations appear below the staff

Tablature Legend
----------------
 h   - hammer-on
 p   - pull-off
 b   - bend
 pb  - pre-bend
 r   - bend release (if no number after the r, then release immediately)
 /\  - slide into or out of (from/to "nowhere")
 s   - legato slide
 S   - shift slide
 - natural harmonic
[n]  - artificial harmonic
n(n) - tapped harmonic
 ~   - vibrato
 tr  - trill
 T   - tap
 TP  - trem. picking
 PM  - palm muting
\n/  - tremolo bar dip; n = amount to dip
 \n  - tremolo bar down
 n/  - tremolo bar up
/n\  - tremolo bar inverted dip
 =   - hold bend; also acts as connecting device for hammers/pulls
 <> - volume swell (louder/softer)
 x   - on rhythm slash represents muted slash
 o   - on rhythm slash represents single note slash

Misc Legend
-----------
 |  - bar
||  - double bar
||o - repeat start
o|| - repeat end
*|  - double bar (ending)
 :  - bar (freetime)
 $  - Segno
 &  - Coda
Tempo markers -  = BPM(8/16=s8/s16), where s8 = swing 8ths, s16 = swing 16ths


Tap to rate this tab
# A B C D E F G H I J K L M N O P Q R S T U V W X Y Z