Song name
# A B C D E F G H I J K L M N O P Q R S T U V W X Y Z

Sevendust - Beautiful tab

Help us improve GuitareTab! Take a short survey!
Sevendust: Beautiful

Transcribed by: Andrew Zara (disturbedfreak0520@yahoo.com)

Date last modified: June 11, 2007

PLEASE DO NOT COPY THIS TAB TO ANOTHER SITE
WITHOUT AUTHORS' PERMISSION. THANK YOU.

Tuning: Drop B (B,F#,B,E,G#,C#)

Clint Lowery


         S    S    S    S    S    S    S    S    S    S    S    S    S    S   E 
C#||----------------------------------------------------------------------------
G#||--<>13-<>15-<>13-<>15-<>13-<>15-<>13-<>15-<>13-<>15-<>13-<>15-<>13-<>15-----
E ||----------------------------------------------------------------------------
B ||------------------------------------------------------------------------<>0-
F#||----------------------------------------------------------------------------
B ||----------------------------------------------------------------------------


    S    S   E    S   S   S   S   S   S   S   S   S   S   S   S  
----------------------------------------------------------------|
--<>8-<>10------------------------------------------------------|
----------------<>5-<>7-<>5-<>7-<>5-<>7-<>5-<>7-<>5-<>7-<>5-<>7-|
-----------<>0--------------------------------------------------|
----------------------------------------------------------------|
----------------------------------------------------------------|


     S    S    S    S    S    S    S    S    S    S    S    S    S    S   E   
-----------------------------------------------------------------------------|
--<>13-<>15-<>13-<>15-<>13-<>15-<>13-<>15-<>13-<>15-<>13-<>15-<>13-<>15------|
-----------------------------------------------------------------------------|
------------------------------------------------------------------------<>0--|
-----------------------------------------------------------------------------|
-----------------------------------------------------------------------------|


    S    S   E    S   S   S   S   S   S   S   S   S   S   S   S  
----------------------------------------------------------------|
--<>8-<>10------------------------------------------------------|
----------------<>5-<>7-<>5-<>7-<>5-<>7-<>5-<>7-<>5-<>7-<>5-<>7-|
-----------<>0--------------------------------------------------|
----------------------------------------------------------------|
----------------------------------------------------------------|


     S    S    S    S    S    S    S    S    S    S    S    S    S    S   E   
-----------------------------------------------------------------------------|
--<>13-<>15-<>13-<>15-<>13-<>15-<>13-<>15-<>13-<>15-<>13-<>15-<>13-<>15------|
-----------------------------------------------------------------------------|
------------------------------------------------------------------------<>0--|
-----------------------------------------------------------------------------|
-----------------------------------------------------------------------------|


    S    S   E    S   S   S   S   S   S   S   S   S   S   S   S  
----------------------------------------------------------------|
--<>8-<>10------------------------------------------------------|
----------------<>5-<>7-<>5-<>7-<>5-<>7-<>5-<>7-<>5-<>7-<>5-<>7-|
-----------<>0--------------------------------------------------|
----------------------------------------------------------------|
----------------------------------------------------------------|


     S    S    S    S    S    S    S    S    S    S    S    S    S    S   E   
-----------------------------------------------------------------------------|
--<>13-<>15-<>13-<>15-<>13-<>15-<>13-<>15-<>13-<>15-<>13-<>15-<>13-<>15------|
-----------------------------------------------------------------------------|
------------------------------------------------------------------------<>0--|
-----------------------------------------------------------------------------|
-----------------------------------------------------------------------------|


    S    S   E    S   S   S   S   S   S   S   S   S   S   S   S  
----------------------------------------------------------------|
--<>8-<>10------------------------------------------------------|
----------------<>5-<>7-<>5-<>7-<>5-<>7-<>5-<>7-<>5-<>7-<>5-<>7-|
-----------<>0--------------------------------------------------|
----------------------------------------------------------------|
----------------------------------------------------------------|


     S    S    S    S    S    S    S    S    S    S    S    S    S    S   E   
-----------------------------------------------------------------------------|
--<>13-<>15-<>13-<>15-<>13-<>15-<>13-<>15-<>13-<>15-<>13-<>15-<>13-<>15------|
-----------------------------------------------------------------------------|
------------------------------------------------------------------------<>0--|
-----------------------------------------------------------------------------|
-----------------------------------------------------------------------------|


    S    S   E    S   S   S   S   S   S   S   S   S   S   S   S  
----------------------------------------------------------------|
--<>8-<>10------------------------------------------------------|
----------------<>5-<>7-<>5-<>7-<>5-<>7-<>5-<>7-<>5-<>7-<>5-<>7-|
-----------<>0--------------------------------------------------|
----------------------------------------------------------------|
----------------------------------------------------------------|


  S S S S E   E.  S S S S S S S    S S S S E   E.  S S S S S S S  
--------------------------------|--------------------------------|
--------------------------------|--------------------------------|
--------------------------------|--------------------------------|
--------------------------------|--------------------------------|
--0-0-0---5\------0-0-0---0-0-0-|----0-0---5\------0-0-0---0-0-0-|
--0-0-0---5\------0-0-0---0-0-0-|----0-0---5\------0-0-0---0-0-0-|


  S S S S E   E.  S S S S S S S    S S S S E   E.  S S S S S S S  
--------------------------------|--------------------------------|
--------------------------------|--------------------------------|
--------------------------------|--------------------------------|
--------------------------------|--------------------------------|
----0-0---5\------0-0-0---0-0-0-|----0-0---5\------0-0-0---0-0-0-|
----0-0---5\------0-0-0---0-0-0-|----0-0---5\------0-0-0---0-0-0-|


  Q    S S Q    E  S E  S    Q    S S Q    E  Q        Q.     H        E   
--------------------------|-------------------------|---------------------|
--------------------------|-------------------------|---------------------|
--------------------------|-------------------------|---------------------|
--------------------------|-------------------------|---------------------|
--5----x-x-5-------x-x--x-|--3----x-x-3-------3\----|--0------7--------7--|
--5----x-x-5-------x-x--x-|--3----x-x-3-------3\----|--0------7--------7--|


  Q.     Q    Q.        Q.     H        E     Q.     Q    Q.      
---------------------|---------------------|---------------------|
---------------------|---------------------|---------------------|
---------------------|---------------------|---------------------|
---------------------|---------------------|---------------------|
--8------8----8------|--0------7--------7--|--8------8----8------|
--8------8----8------|--0------7--------7--|--8------8----8------|


  Q.     H        E     Q.     Q    Q.        Q    S S Q    E  S E  S  
---------------------|---------------------|--------------------------|
---------------------|---------------------|--------------------------|
---------------------|---------------------|--------------------------|
---------------------|---------------------|--------------------------|
--0------7--------7--|--8------8----8------|--5----x-x-5-------x-x--x-|
--0------7--------7--|--8------8----8------|--5----x-x-5-------x-x--x-|


  Q    S S Q    E  Q      
-------------------------|
-------------------------|
-------------------------|
-------------------------|
--3----x-x-3-------3\----|
--3----x-x-3-------3\----|


     S    S    S    S    S    S    S    S    S    S    S    S    S    S   E   
-----------------------------------------------------------------------------|
--<>13-<>15-<>13-<>15-<>13-<>15-<>13-<>15-<>13-<>15-<>13-<>15-<>13-<>15------|
-----------------------------------------------------------------------------|
------------------------------------------------------------------------<>0--|
-----------------------------------------------------------------------------|
-----------------------------------------------------------------------------|


    S    S   E    S   S   S   S   S   S   S   S   S   S   S   S  
----------------------------------------------------------------|
--<>8-<>10------------------------------------------------------|
----------------<>5-<>7-<>5-<>7-<>5-<>7-<>5-<>7-<>5-<>7-<>5-<>7-|
-----------<>0--------------------------------------------------|
----------------------------------------------------------------|
----------------------------------------------------------------|


     S    S    S    S    S    S    S    S    S    S    S    S    S    S   E   
-----------------------------------------------------------------------------|
--<>13-<>15-<>13-<>15-<>13-<>15-<>13-<>15-<>13-<>15-<>13-<>15-<>13-<>15------|
-----------------------------------------------------------------------------|
------------------------------------------------------------------------<>0--|
-----------------------------------------------------------------------------|
-----------------------------------------------------------------------------|


    S    S   E    S   S   S   S   S   S   S   S   S   S   S   S  
----------------------------------------------------------------|
--<>8-<>10------------------------------------------------------|
----------------<>5-<>7-<>5-<>7-<>5-<>7-<>5-<>7-<>5-<>7-<>5-<>7-|
-----------<>0--------------------------------------------------|
----------------------------------------------------------------|
----------------------------------------------------------------|


     S    S    S    S    S    S    S    S    S    S    S    S    S    S   E   
-----------------------------------------------------------------------------|
--<>13-<>15-<>13-<>15-<>13-<>15-<>13-<>15-<>13-<>15-<>13-<>15-<>13-<>15------|
-----------------------------------------------------------------------------|
------------------------------------------------------------------------<>0--|
-----------------------------------------------------------------------------|
-----------------------------------------------------------------------------|


    S    S   E    S   S   S   S   S   S   S   S   S   S   S   S  
----------------------------------------------------------------|
--<>8-<>10------------------------------------------------------|
----------------<>5-<>7-<>5-<>7-<>5-<>7-<>5-<>7-<>5-<>7-<>5-<>7-|
-----------<>0--------------------------------------------------|
----------------------------------------------------------------|
----------------------------------------------------------------|


  S S S S E   E.  S S S S S S S    S S S S E   E.  S S S S S S S  
--------------------------------|--------------------------------|
--------------------------------|--------------------------------|
--------------------------------|--------------------------------|
--------------------------------|--------------------------------|
--0-0-0---5\------0-0-0---0-0-0-|----0-0---5\------0-0-0---0-0-0-|
--0-0-0---5\------0-0-0---0-0-0-|----0-0---5\------0-0-0---0-0-0-|


  S S S S E   E.  S S S S S S S    S S S S E   E.  S S S S S S S  
--------------------------------|--------------------------------|
--------------------------------|--------------------------------|
--------------------------------|--------------------------------|
--------------------------------|--------------------------------|
----0-0---5\------0-0-0---0-0-0-|----0-0---5\------0-0-0---0-0-0-|
----0-0---5\------0-0-0---0-0-0-|----0-0---5\------0-0-0---0-0-0-|


  Q    S S Q    E  S E  S    Q    S S Q    E  Q        Q.     H        E   
--------------------------|-------------------------|---------------------|
--------------------------|-------------------------|---------------------|
--------------------------|-------------------------|---------------------|
--------------------------|-------------------------|---------------------|
--5----x-x-5-------x-x--x-|--3----x-x-3-------3\----|--0------7--------7--|
--5----x-x-5-------x-x--x-|--3----x-x-3-------3\----|--0------7--------7--|


  Q.     Q    Q.        Q.     H        E     Q.     Q    Q.      
---------------------|---------------------|---------------------|
---------------------|---------------------|---------------------|
---------------------|---------------------|---------------------|
---------------------|---------------------|---------------------|
--8------8----8------|--0------7--------7--|--8------8----8------|
--8------8----8------|--0------7--------7--|--8------8----8------|


  Q.     H        E     Q.     Q    Q.        Q    S S Q    E  S E  S  
---------------------|---------------------|--------------------------|
---------------------|---------------------|--------------------------|
---------------------|---------------------|--------------------------|
---------------------|---------------------|--------------------------|
--0------7--------7--|--8------8----8------|--5----x-x-5-------x-x--x-|
--0------7--------7--|--8------8----8------|--5----x-x-5-------x-x--x-|


  Q    S S Q    E  Q        Q    S S S S S S S S S S S S  
-------------------------|-------------------------------|
-------------------------|-------------------------------|
-------------------------|-------------------------------|
-------------------------|-------------------------------|
--3----x-x-3-------3\----|-------------------------------|
--3----x-x-3-------3\----|-------x-x-x-x-x-x-x-x-x-x-x-x-|


  S S S S S S S S S S S S S S S S    S S S S S S S S S S S S S S S S  
----------------------------------|----------------------------------|
----------------------------------|----------------------------------|
----------------------------------|----------------------------------|
----------------------------------|----------------------------------|
----------------------------------|----------------------------------|
--x-x-x-x-x-x-x-x-x-x-x-x-x-x-x-x-|--x-x-x-x-x-x-x-x-x-x-x-x-x-x-x-x-|


  S S S S S S S S S S S S S S S S    S S S S E   E.  S S S S S S S  
----------------------------------|--------------------------------|
----------------------------------|--------------------------------|
----------------------------------|--------------------------------|
----------------------------------|--------------------------------|
----------------------------------|--0-0-0---5\------0-0-0---0-0-0-|
--x-x-x-x-x-x-x-x-x-x-x-x-x-x-x-x-|--0-0-0---5\------0-0-0---0-0-0-|


  S S S S E   E.  S S S S S S S    S S S S E   E.  S S S S S S S  
--------------------------------|--------------------------------|
--------------------------------|--------------------------------|
--------------------------------|--------------------------------|
--------------------------------|--------------------------------|
--0-0-0---5\------0-0-0---0-0-0-|--0-0-0---5\------0-0-0---0-0-0-|
--0-0-0---5\------0-0-0---0-0-0-|--0-0-0---5\------0-0-0---0-0-0-|


  S S S S E   E.  S S S S S E     S S S S E   E.  S S S S S S S  
-------------------------------|--------------------------------|
-------------------------------|--------------------------------|
-------------------------------|--------------------------------|
-------------------------------|--------------------------------|
--0-0-0---5\------0-0---0-0----|--0-0-0---5\------0-0-0---0-0-0-|
--0-0-0---5\------0-0---0-0----|--0-0-0---5\------0-0-0---0-0-0-|


  S S S S E   E.  S S S S S S S    S S S S E   E.  S S S S S S S  
--------------------------------|--------------------------------|
--------------------------------|--------------------------------|
--------------------------------|--------------------------------|
--------------------------------|--------------------------------|
--0-0-0---5\------0-0-0---0-0-0-|--0-0-0---5\------0-0-0---0-0-0-|
--0-0-0---5\------0-0-0---0-0-0-|--0-0-0---5\------0-0-0---0-0-0-|


  S S S S E   E.  S S S S S S S    Q    S S Q    E  S E  S  
--------------------------------|--------------------------|
--------------------------------|--------------------------|
--------------------------------|--------------------------|
--------------------------------|--------------------------|
--0-0-0---5\------0-0-0---0-0-0-|--5----x-x-5-------x-x--x-|
--0-0-0---5\------0-0-0---0-0-0-|--5----x-x-5-------x-x--x-|


  Q    S S Q    E  Q        Q    S S Q    E  S E  S    Q    S S Q    E  Q     
-------------------------|--------------------------|------------------------|
-------------------------|--------------------------|------------------------|
-------------------------|--------------------------|------------------------|
-------------------------|--------------------------|------------------------|
--3----x-x-3-------3\----|--5----x-x-5-------x-x--x-|--3----x-x-3-------3----|
--3----x-x-3-------3\----|--5----x-x-5-------x-x--x-|--3----x-x-3-------3----|


  W                                                                           
  H           Q.     H        E     Q.     Q    Q.        Q.     H        E   
-----------|---------------------|---------------------|---------------------|
-----------|---------------------|---------------------|---------------------|
-----------|---------------------|---------------------|---------------------|
-----------|---------------------|---------------------|---------------------|
--L--------|--0------7--------7--|--8------8----8------|--0------7--------7--|
--L--------|--0------7--------7--|--8------8----8------|--0------7--------7--|


  Q.     Q    Q.        Q.     H        E     Q.     Q    Q.      
---------------------|---------------------|---------------------|
---------------------|---------------------|---------------------|
---------------------|---------------------|---------------------|
---------------------|---------------------|---------------------|
--8------8----8------|--0------7--------7--|--8------8----8------|
--8------8----8------|--0------7--------7--|--8------8----8------|


  Q    S S Q    E  S E  S    Q    S S Q    E  Q        Q.     H        E   
--------------------------|-------------------------|---------------------|
--------------------------|-------------------------|---------------------|
--------------------------|-------------------------|---------------------|
--------------------------|-------------------------|---------------------|
--5----x-x-5-------x-x--x-|--3----x-x-3-------3\----|--0------7--------7--|
--5----x-x-5-------x-x--x-|--3----x-x-3-------3\----|--0------7--------7--|


  Q.     Q    Q.        Q.     H        E     Q.     Q    Q.      
---------------------|---------------------|---------------------|
---------------------|---------------------|---------------------|
---------------------|---------------------|---------------------|
---------------------|---------------------|---------------------|
--8------8----8------|--0------7--------7--|--8------8----8------|
--8------8----8------|--0------7--------7--|--8------8----8------|


  Q.     H        E     Q.     Q    Q.          Q    S S Q    E  S E  S  
---------------------|---------------------||---------------------------|
---------------------|---------------------||---------------------------|
---------------------|---------------------||*--------------------------|
---------------------|---------------------||*--------------------------|
--0------7--------7--|--8------8----8------||---5----x-x-5----L--5-5--5-|
--0------7--------7--|--8------8----8------||---5----x-x-5----L--5-5--5-|


  Q    S S Q    E  S E  S    Q    S S Q    E  S E  S  
--------------------------|--------------------------|
--------------------------|--------------------------|
--------------------------|--------------------------|
--------------------------|--------------------------|
--3----x-x-3----L--3-3--3-|--5----x-x-5----L--5-5--5-|
--3----x-x-3----L--3-3--3-|--5----x-x-5----L--5-5--5-|


  Q    S S Q    E  S E  S      W                  
---------------------------||-------------------||
---------------------------||-------------------||
--------------------------*||-------------------||
--------------------------*||-------------------||
--3----x-x-3----L--3-3--3--||--1----------------||
--3----x-x-3----L--3-3--3--||--1----------------||

************************************************
************************************************
************************************************

John Connolly

S S S Q.     S S S S S S S  
C#||-------|-------|-----------------------------|
G#||-------|-------|-----------------------------|
E ||-------|-------|-----------------------------|
B ||-------|-------|-----------------------------|
F#||-------|-------|--0-0-0--------0-0-0---0-0-0-|
B ||-------|-------|--0-0-0--------0-0-0---0-0-0-|


  S S S S S S E.  S S S S S S S    S S S S S S E.  S S S S S S S  
--------------------------------|--------------------------------|
--------------------------------|--------------------------------|
--------------------------------|--------------------------------|
--------0-0-3-------------------|--------------------------------|
----3-5-----------0-0-0---0-0-0-|----3-5-L-3-5-----0-0-0---0-0-0-|
--0---------------0-0-0---0-0-0-|--0---------------0-0-0---0-0-0-|


  S S S S S S E  S S E  S S S S    S S S Q.     S S S S S S S  
--------------------------------|-----------------------------|
--------------------------------|-----------------------------|
--------------------------------|-----------------------------|
--------0-0-3-------------------|-----------------------------|
----3-5----------0-0----0-0-L-0-|--0-0-0--------0-0-0---0-0-0-|
--0--------------0-0----0-0-L-0-|--0-0-0--------0-0-0---0-0-0-|


  S S S S S S E.  S S S S S S S    S S S S S S E.  S S S S S S S  
--------------------------------|--------------------------------|
--------------------------------|--------------------------------|
--------------------------------|--------------------------------|
--------0-0-3-------------------|--------------------------------|
----3-5-----------0-0-0---0-0-0-|----3-5-L-3-5-----0-0-0---0-0-0-|
--0---------------0-0-0---0-0-0-|--0---------------0-0-0---0-0-0-|


  S S S S S S E  S S E  S S S S    S S S S E   E.  S S S S S S S  
--------------------------------|--------------------------------|
--------------------------------|--------------------------------|
--------------------------------|--------------------------------|
--------0-0-3-------------------|--------------------------------|
----3-5----------0-0----0-0-L-0-|--0-0-0---5\------0-0-0---0-0-0-|
--0--------------0-0----0-0-L-0-|--0-0-0---5\------0-0-0---0-0-0-|


  S S S S E   E.  S S S S S S S    S S S S E   E.  S S S S S S S  
--------------------------------|--------------------------------|
--------------------------------|--------------------------------|
--------------------------------|--------------------------------|
--------------------------------|--------------------------------|
----0-0---5\------0-0-0---0-0-0-|----0-0---5\------0-0-0---0-0-0-|
----0-0---5\------0-0-0---0-0-0-|----0-0---5\------0-0-0---0-0-0-|


  S S S S E   E.  S S S S S S S    Q    S S Q    E  S E  S  
--------------------------------|--------------------------|
--------------------------------|--------------------------|
--------------------------------|--------------------------|
--------------------------------|--------------------------|
----0-0---5\------0-0-0---0-0-0-|--5----x-x-5-------x-x--x-|
----0-0---5\------0-0-0---0-0-0-|--5----x-x-5-------x-x--x-|


  Q    S S Q    E  Q        Q.     H        E     Q.     Q    Q.      
-------------------------|---------------------|---------------------|
-------------------------|---------------------|---------------------|
-------------------------|---------------------|---------------------|
-------------------------|---------------------|---------------------|
--3----x-x-3-------3\----|--0------7--------7--|--8------8----8------|
--3----x-x-3-------3\----|--0------7--------7--|--8------8----8------|


  Q.     H        E     Q.     Q    Q.        Q.     H        E   
---------------------|---------------------|---------------------|
---------------------|---------------------|---------------------|
---------------------|---------------------|---------------------|
---------------------|---------------------|---------------------|
--0------7--------7--|--8------8----8------|--0------7--------7--|
--0------7--------7--|--8------8----8------|--0------7--------7--|


  Q.     Q    Q.        Q    S S Q    E  S E  S    Q    S S Q    E  Q      
---------------------|--------------------------|-------------------------|
---------------------|--------------------------|-------------------------|
---------------------|--------------------------|-------------------------|
---------------------|--------------------------|-------------------------|
--8------8----8------|--5----x-x-5-------x-x--x-|--3----x-x-3-------3\----|
--8------8----8------|--5----x-x-5-------x-x--x-|--3----x-x-3-------3\----|


                                          Q    Q    S S E  S S E   
-------|-------|-------|-------|-------|--------------------------|
-------|-------|-------|-------|-------|--------------------------|
-------|-------|-------|-------|-------|--------------------------|
-------|-------|-------|-------|-------|--------------------------|
-------|-------|-------|-------|-------|------------0-0-x--0-0----|
-------|-------|-------|-------|-------|------------0-0-x--0-0----|


  S S S S E   E.  S S S S S S S    S S S S E   E.  S S S S S S S  
--------------------------------|--------------------------------|
--------------------------------|--------------------------------|
--------------------------------|--------------------------------|
--------------------------------|--------------------------------|
--0-0-0---5\------0-0-0---0-0-0-|----0-0---5\------0-0-0---0-0-0-|
--0-0-0---5\------0-0-0---0-0-0-|----0-0---5\------0-0-0---0-0-0-|


  S S S S E   E.  S S S S S S S    S S S S E   E.  S S S S S S S  
--------------------------------|--------------------------------|
--------------------------------|--------------------------------|
--------------------------------|--------------------------------|
--------------------------------|--------------------------------|
----0-0---5\------0-0-0---0-0-0-|----0-0---5\------0-0-0---0-0-0-|
----0-0---5\------0-0-0---0-0-0-|----0-0---5\------0-0-0---0-0-0-|


  Q    S S Q    E  S E  S    Q    S S Q    E  Q        Q.     H        E   
--------------------------|-------------------------|---------------------|
--------------------------|-------------------------|---------------------|
--------------------------|-------------------------|---------------------|
--------------------------|-------------------------|---------------------|
--5----x-x-5-------x-x--x-|--3----x-x-3-------3\----|--0------7--------7--|
--5----x-x-5-------x-x--x-|--3----x-x-3-------3\----|--0------7--------7--|


  Q.     Q    Q.        Q.     H        E     Q.     Q    Q.      
---------------------|---------------------|---------------------|
---------------------|---------------------|---------------------|
---------------------|---------------------|---------------------|
---------------------|---------------------|---------------------|
--8------8----8------|--0------7--------7--|--8------8----8------|
--8------8----8------|--0------7--------7--|--8------8----8------|


  Q.     H        E     Q.     Q    Q.        Q    S S Q    E  S E  S  
---------------------|---------------------|--------------------------|
---------------------|---------------------|--------------------------|
---------------------|---------------------|--------------------------|
---------------------|---------------------|--------------------------|
--0------7--------7--|--8------8----8------|--5----x-x-5-------x-x--x-|
--0------7--------7--|--8------8----8------|--5----x-x-5-------x-x--x-|


  Q    S S Q    E  Q        Q    S S S S S S S S S S S S  
-------------------------|-------------------------------|
-------------------------|-------------------------------|
-------------------------|-------------------------------|
-------------------------|-------------------------------|
--3----x-x-3-------3\----|-------------------------------|
--3----x-x-3-------3\----|-------x-x-x-x-x-x-x-x-x-x-x-x-|


  S S S S S S S S S S S S S S S S    S S S S S S S S S S S S S S S S  
----------------------------------|----------------------------------|
----------------------------------|----------------------------------|
----------------------------------|----------------------------------|
----------------------------------|----------------------------------|
----------------------------------|----------------------------------|
--x-x-x-x-x-x-x-x-x-x-x-x-x-x-x-x-|--x-x-x-x-x-x-x-x-x-x-x-x-x-x-x-x-|


  S S S S S S S S S S S S S S S S    S S S S E   E.  S S S S S S S  
----------------------------------|--------------------------------|
----------------------------------|--------------------------------|
----------------------------------|--------------------------------|
----------------------------------|--------------------------------|
----------------------------------|--0-0-0---5\------0-0-0---0-0-0-|
--x-x-x-x-x-x-x-x-x-x-x-x-x-x-x-x-|--0-0-0---5\------0-0-0---0-0-0-|


  S S S S E   E.  S S S S S S S    S S S S E   E.  S S S S S S S  
--------------------------------|--------------------------------|
--------------------------------|--------------------------------|
--------------------------------|--------------------------------|
--------------------------------|--------------------------------|
--0-0-0---5\------0-0-0---0-0-0-|--0-0-0---5\------0-0-0---0-0-0-|
--0-0-0---5\------0-0-0---0-0-0-|--0-0-0---5\------0-0-0---0-0-0-|


  S S S S E   E.  S S S S S E     S S S S E   E.  S S S S S S S  
-------------------------------|--------------------------------|
-------------------------------|--------------------------------|
-------------------------------|--------------------------------|
-------------------------------|--------------------------------|
--0-0-0---5\------0-0---0-0----|--0-0-0---5\------0-0-0---0-0-0-|
--0-0-0---5\------0-0---0-0----|--0-0-0---5\------0-0-0---0-0-0-|


  S S S S E   E.  S S S S S S S    S S S S E   E.  S S S S S S S  
--------------------------------|--------------------------------|
--------------------------------|--------------------------------|
--------------------------------|--------------------------------|
--------------------------------|--------------------------------|
--0-0-0---5\------0-0-0---0-0-0-|--0-0-0---5\------0-0-0---0-0-0-|
--0-0-0---5\------0-0-0---0-0-0-|--0-0-0---5\------0-0-0---0-0-0-|


  S S S S E   E.  S S S S S S S    Q    S S Q    E  S E  S  
--------------------------------|--------------------------|
--------------------------------|--------------------------|
--------------------------------|--------------------------|
--------------------------------|--------------------------|
--0-0-0---5\------0-0-0---0-0-0-|--5----x-x-5-------x-x--x-|
--0-0-0---5\------0-0-0---0-0-0-|--5----x-x-5-------x-x--x-|


  Q    S S Q    E  Q        Q    S S Q    E  S E  S    Q    S S Q    E  Q     
-------------------------|--------------------------|------------------------|
-------------------------|--------------------------|------------------------|
-------------------------|--------------------------|------------------------|
-------------------------|--------------------------|------------------------|
--3----x-x-3-------3\----|--5----x-x-5-------x-x--x-|--3----x-x-3-------3----|
--3----x-x-3-------3\----|--5----x-x-5-------x-x--x-|--3----x-x-3-------3----|


  W                                                                           
  H           Q.     H        E     Q.     Q    Q.        Q.     H        E   
-----------|---------------------|---------------------|---------------------|
-----------|---------------------|---------------------|---------------------|
-----------|---------------------|---------------------|---------------------|
-----------|---------------------|---------------------|---------------------|
--L--------|--0------7--------7--|--8------8----8------|--0------7--------7--|
--L--------|--0------7--------7--|--8------8----8------|--0------7--------7--|


  Q.     Q    Q.        Q.     H        E     Q.     Q    Q.      
---------------------|---------------------|---------------------|
---------------------|---------------------|---------------------|
---------------------|---------------------|---------------------|
---------------------|---------------------|---------------------|
--8------8----8------|--0------7--------7--|--8------8----8------|
--8------8----8------|--0------7--------7--|--8------8----8------|


  Q    S S Q    E  S E  S    Q    S S Q    E  Q        Q.     H        E   
--------------------------|-------------------------|---------------------|
--------------------------|-------------------------|---------------------|
--------------------------|-------------------------|---------------------|
--------------------------|-------------------------|---------------------|
--5----x-x-5-------x-x--x-|--3----x-x-3-------3\----|--0------7--------7--|
--5----x-x-5-------x-x--x-|--3----x-x-3-------3\----|--0------7--------7--|


  Q.     Q    Q.        Q.     H        E     Q.     Q    Q.      
---------------------|---------------------|---------------------|
---------------------|---------------------|---------------------|
---------------------|---------------------|---------------------|
---------------------|---------------------|---------------------|
--8------8----8------|--0------7--------7--|--8------8----8------|
--8------8----8------|--0------7--------7--|--8------8----8------|


  Q.     H        E     Q.     Q    Q.          Q    S S Q    E  S E  S  
---------------------|---------------------||---------------------------|
---------------------|---------------------||---------------------------|
---------------------|---------------------||*--------------------------|
---------------------|---------------------||*--------------------------|
--0------7--------7--|--8------8----8------||---5----x-x-5----L--5-5--5-|
--0------7--------7--|--8------8----8------||---5----x-x-5----L--5-5--5-|


  Q    S S Q    E  S E  S    Q    S S Q    E  S E  S  
--------------------------|--------------------------|
--------------------------|--------------------------|
--------------------------|--------------------------|
--------------------------|--------------------------|
--3----x-x-3----L--3-3--3-|--5----x-x-5----L--5-5--5-|
--3----x-x-3----L--3-3--3-|--5----x-x-5----L--5-5--5-|


  Q    S S Q    E  S E  S      W                  
---------------------------||-------------------||
---------------------------||-------------------||
--------------------------*||-------------------||
--------------------------*||-------------------||
--3----x-x-3----L--3-3--3--||--1----------------||
--3----x-x-3----L--3-3--3--||--1----------------||










Duration Legend
---------------
W - whole
H - half
Q - quarter
E - 8th
S - 16th
T - 32nd
X - 64th
. - note dotted
|-n-|  - n-tuplets


Tablature Legend
----------------
L - tied note
x - dead note
g - grace note
(n) - ghost note
> - accentuded note
NH - natural harmonic
AH - artificial harmonic
TH - tapped harmonic
SH - semi harmonic
PH - pitch harmonic
h - hammer on
p - pull off
b - bend
br - bendRelease
pb - preBend
pbr - preBendRelease
brb - bendReleaseBend
\n/ - tremolo bar dip
\n - tremolo bar dive
-/n - tremolo bar Release up
/n\ - tremolo bar inverted dip
/n - tremolo bar return
-\n - tremolo bar Release down
S - shift slide
s - legato slide
/ -  slide into from below or out of upwards
\ -  slide into from above or out of downwards
~ - vibrato
W - wide vibrato
tr - trill
TP - tremolo picking
T - tapping
S - slap
P - pop
< - fade in
^ - brush up
v - brush down
Related for Beautiful tab