Guitaretab - guitar tabs
Song name
# A B C D E F G H I J K L M N O P Q R S T U V W X Y Z

Sevendust - Shadows In Red tab

tuning:B-F#-B-E-F#-B

[ Tab from: http://www.guitaretab.com/s/sevendust/69871.html ]
chords verse
gtr 1
---0----0----0----0---------|
---0----0----0----0---------|
---2----2----2----3---------|
---0----0----0----0---------|
---0----3----x----x---------|
---0---------3----5---------|
gtr 2(second verse)
------------12-----------|
---------12----12--------|
------12----------12-----|
---12--------------------|
-------------------------|
-------------------------|
harm---------------------|
chourusfigure out struming
---0-----------------0----0----0----0------|
---0-----------------0----0----0----0------|
---2---5-5-7-7-11----2----2----2----3------|
---0---x-x-x-x-x-----0----0----0----0------|
---0---3-3-5-5-9-----0----3----x----x------|
---0-----------------0----x----3----5------|
x2-----------------------------------------|
solo (STILL WORKING ON IT SORRY)
------------------------------------------------------------|
------------------------------------------------------------|
------------------------------------------------------------|
------------------------------------------------------------|
------------------------------------------------------------|
------------------------------------------------------------|

breakdown
--------0----------0-----------0-------------0-----|
----------0----------0-----------0---------0-------|
------2-----2-----2----2-----2-----2-----3-----3---|
----0-----------0----------0-----------0-----------|
--------------3------------------------------------|
--0----------------------3-----------5-------------|


just so everyones clear here are the tunings for the new cd like it or not its confirmed 
sonny in a mag interview
hero           /B-F#-B-E-A-B
ugly           /B-F#-B-E-G#-C#
pieces         /B-F#-B-E-A-B
silence        /B-F#-B-E-G#-C#
thislife       /A#-F#-B-E-G#-C#
failure        /B-F#-B-E-G#-C#
see and believe/B-F#-B-E-G#-C#
the last song  /B-F#-B-E-G#-C#
desertion      /A#-F#-B-E-G#-C#
never          /B-F#-B-E-G#-C#
shadows in red /B-F#-B-E-F#-B
Related for Shadows In Red tab
Advertisement will be closed in 10 seconds