Song name
# A B C D E F G H I J K L M N O P Q R S T U V W X Y Z

Sevendust - Silence tab

Help us improve GuitareTab! Take a short survey!
Band- Sevendust
Song- Silence
Album- Next

This is off their new album, Next, it's probably one of their better songs off the
album. I'm surprised that their isn't many tabs for Sevendust, so I'm going to start
tabbing a lot of their newer stuff. Enjoy!

Tuning- Standard Sevendust tuning( B,Gb,B,E,Ab,Db or B,F#,B,E,G#,C#)

Intro
|----------------------------------------------------|
|----------------------------------------------------|
|----------------------------------------------------|
|----------------------------------------------------|
|----------------------------------------------------|
|-2p0-2h3-2p0-0-0-0--0-0--0-0-0--0-0-0--0-0-0--0-0-0-|
P.M.          .....  ...  .....  .....  .....  .....
Verse
|----------------------------------------------------|
|----------------------------------------------------|
|----------------------------------------------------|
|----------------------------------------------------|
|-2p0-2h3-2p0-0-0-0--0-0--0-0-0--0-0-0--0-0-0--0-0-0-|
|-2p0-2h3-2p0-0-0-0--0-0--0-0-0--0-0-0--0-0-0--0-0-0-|
P.M.          .....  ...  .....  .....  .....  .....

|--------------------------------------------------0-|
|----------------------------------------------------|
|------------------------------------------------4---|(The end part is w/wah
|----------------------------------------------5-----|
|-2p0-2h3-2p0-0-0-0--0-0--0-0-0--0-0-0--0-0-0--------|
|-2p0-2h3-2p0-0-0-0--0-0--0-0-0--0-0-0--0-0-0--------|
P.M.          .....  ...  .....  .....  .....
Pre-Chorus
|-----------------------------------------------|
|-----------------------------------------------|
|-----------------------------------------------|
|-----------------------------------------------|
|-0-0-0-0-0--0-0--0-0-0--0-0--0-0-0--0-0--0-0-0-|
|-0-0-0-0-0--0-0--0-0-0--0-0--0-0-0--0-0--0-0-0-|
P.M........  ...  .....  ...  .....  ...  .....

|--------------------------------------------------|
|-13/15-15/17-17\13-13/15-15/17-17/15-15--20-20-18-|
|--------------------------------------------------|
|-10/12-12/14-14\10-10/12-12/14-14\12-12--17-17-15-|
|--------------------------------------------------|
|--------------------------------------------------|

Chorus(These are just the chords,not the strumming pattern)
|-------------------|
|------------3------|
|-10---12----2----5-|
|-8----10----0----3-|
|-8----10----0----3-|
|-8----10----0----3-|

Intro

Verse

Pre-Chorus

Chorus

Bridge-Guitar 1
|--------------------------|
|--------------------------|
|-9~---9--7--9--10--12--14-|
|--------------------------|
|--------------------------|
|--------------------------|

Solo-Guitar 2
|-----------------------------------------------|
|-----------------------------------------------|
|-/17~----17^----12----14----/17~----17^----14~-|
|-----------------------------------------------|
|-----------------------------------------------|
|-----------------------------------------------|

Fill
|-----------|
|-----------|
|-9~-----7~-|
|-9~-----7~-|
|-7~-----5~-|
|-----------|

Verse 

Pre-Chorus

Chorus

Outro(Same as verse)

Hero, The Last Song, and Never coming soon.

Related for Silence tab