Song name
# A B C D E F G H I J K L M N O P Q R S T U V W X Y Z

Sevendust - Bitch tab

Band - Sevendust
Song - Bitch
Album - Sevendust (1997)
Tuning - B,Gb,B,E,Ab,Db

Intro - Clean
|-----------------------------------------------------------------|
|-----------------------------------------------------------------|
|-----5-5-5-5-5-5-----5-5-5-5-5-5-----8-8-8-8-8-8-----3-3-3-3-3-3-|
|-x-x-5-5-5-5-5-5-x-x-5-5-5-5-5-5-x-x-8-8-8-8-8-8-x-x-3-3-3-3-3-3-|
|-x-x-3-3-3-3-3-3-x-x-3-3-3-3-3-3-x-x-6-6-6-6-6-6-x-x-1-1-1-1-1-1-|
|-x-x-3-3-3-3-3-3-x-x-------------x-x-------------x-x-------------|

Intro Ending - Click on distortion while last chord is still ringing
|----------------|
|----------------|
|-----3-3-----2~-|
|-x-x-3-3-x-x-2~-|
|-x-x-1-1-x-x-0~-|
|-x-x-----x-x----|

Heavy Intro - Distortion
|-------------------------|
|-------------------------|
|---7/8---7/8---7/8-7-----|
|---x-x---x-x---x-x-x-6-5-|
|-0-5/6-0-5/6-0-5/6-5-6-5-|
|-0-----0-----0-------6-5-|
  .     .     .

Heavy Intro Ending
|-------------------------|
|-------------------------|
|---7/8---7/8---7/8~------|
|---x-x---x-x---x-x----0~-|
|-0-5/6-0-5/6-0-5/6~---0~-|
|-0-----0-----0--------0~-|
  .     .     .

Verse
|-----------------------------|
|-----------------------------|
|-----------------------------|
|-----------------------------|  Repeats
|-0-2-0-3-0--0-2--0-2-0-2-3-0-|
|-0-2-0-3-0--0-2--0-2-0-2-3-0-|
  . . . . .  . .  . . . . . .

|-----------------------------|
|-----------------------------|
|-----------------------------|
|-----------------------------|  Repeats
|-0-2-0-3-0--0-2--0-2-0-2-3-0-|
|-0-2-0-3-0--0-2--0-2-0-2-3-0-|
             . .  . . . . . .

Play Intro for Chorus

Post-Chorus
|-------------------------|
|-------------------------|
|-----5-7-----5---7---8-8-|
|-----x-x-----x---x---x-x-|  2x
|-0-0-3-5-0-0-3-0-5-0-6-6-|
|-0-0-----0-0---0---0-----|
  . .     . .   .   .

|-------------------------|
|-------------------------|
|-----5/7-----5---7---8-8-|
|-----x-x-----x---x---x-x-|  2x
|-0-0-3/5-0-0-3-0-5-0-6-6-|
|-0-0-----0-0---0---0-----|
  . .     . .   .   .

|-----------------------------------------------|
|-----------------------------------------------|
|-----------------------------------------------|
|-----------------------------------------------|
|-0-2-0-2-2--0-2-0-2-2-2--0-2-0-2-2--0-2-0-2-2~-|
|-0-2-0-2-2--0-2-0-2-2-2--0-2-0-2-2--0-2-0-2-2~-|
  . . . .    . . . .      . . . .    . . . .

Play Verse

Play Chorus w/distortion

End with Verse

Enjoy!





Tap to rate this tab
# A B C D E F G H I J K L M N O P Q R S T U V W X Y Z