Song name
# A B C D E F G H I J K L M N O P Q R S T U V W X Y Z

Sevendust - Prayer tab

Band- Sevendust
Song- Prayer

(Intro)

      Bm                    Gmaj7                  A6             B


e ------2--------------------2--------------|-------2-----|------------|
b ------3--------------------0--------------|-------2-----|-------4----|
g ------4--------------------0--------------|-------2-----|-------4----|
d ------4--------------------0------------ -|-------2-----|-------4----|
a ------2--------------------------------- -|-------0-----|-------2----|
e ---------------------------3------------ -|-------------|------------|

    Play those four chords then play them in this order:

         Gmaj7                A6                   B               B


     
(wah-wah pedal)
e ----------|-----------------|---------------|----------|
b   ------0-|----------0------|-------0------ |------0---|
g  ---------|-----------------|------------- -|----------|
d  ---------|-----------------|------------- -|----------|
a ----------|-----------------|------------- -|----------|
e ----------|-----------------|------------- -|----------|
      Hit the b-string 16X



   Coda           
(Flanger effect used here)
e -------------|-------------|--------------|-------------|
b -------------|----------- -|--------------|-------------|
g ------6------|------6------|-------6------|-----6-------|
d -------------|-------------|--------------|-------------|
a ------4------|------4------|-------4------|-----4-------|
e -------------|-------------|--------------|-------------|
        Play this measure twice




                      Who do you pray to?!... 
e-------------------------------------------------------------------------------------|  
b-------------------------------------------------------------------------------------|  
g-------------------------------------------------------------------------------------|   
d---------10---------9----------------------10-----------9----------------------------|     
a----------8----------7----------10----------8-----------7------------10-------10-----|
e---------------------------------8--------------------------------------8--------8---|     

|-------------------------------|
|-------------------------------| 
|-------------------------------|  
|------10-------9---------------|
|-------8-------7------10-------|  
|-----------------------8-------|

  ------------------------------------------------------------------|
  ------------------------------------------------------------------|
  ------------------------------------------------------------------|
  ---10------------X-----X---------------X----X----X----X-----------|
  ----8------------X-----X---------------X--- X----X----X-----------|
  -----------------X-----X---------------X----X----X----X-----------|
      Play this measure 3X

                                                                                
play this 2X                      D.S al Coda
e-------------------------------------------|------------------------------------------------------------------|
b ------------------------------------------|------------------------------------------------------------------|
d ------------------------------------------|------------------------------------------------------------------|
g ------5-------7--------9--------10------  |------------------------------------------------------------------|
a ------3-------5--------7---------8------- |-----------5------------------7-----------------------9-----------|
e-------------------------------------------|-----------3------------------5-----------------------7-----------|
                                                                                                   
28X



e--------------------------7-----------------------|
b--------------------------7-----------------------|
d--------------------------------------------------|    Back  to the intro for
g--------------------------9-----------------------|	the end
a-----9------------------- 9-----------------------|
e-----7------------------ 7------------------------|
      19X






Tap to rate this tab
 
# A B C D E F G H I J K L M N O P Q R S T U V W X Y Z