Song name
# A B C D E F G H I J K L M N O P Q R S T U V W X Y Z

Sevendust - Gone tab

Tuning is drop C#...the song itself is actually pretty easy...but unless you have a 
designed to hold low tunings, it can be really hard to get your guitar in tune and keep it 
way.

KEY: p.= palm mute
     ~ = bend
     H = hammer on
     p = pull off
     X = mute


INTRO/OUTRO:

C#-0-0-0-0-0-0-0-0-0-0-0-0-0-0-0-0-0-0-0-|
G#-0-0-0-0-0-0-0-0-0-0-0-0-0-0-0-0-0-0-0-|
D#-2-3-5-3H5-6-8-5-3H5-6-8-5-3H6-5-3-3-2-|
B----------------------------------------|
F#---------------------------------------|
B----------------------------------------|


BRIDGE/MAIN LICK:

C#----------------------------------|
G#----------------------------------|
D#----------------------------------|
B---3-p2-2-2-0-2-0-1-0--------------|   REPEAT   (this is the bridge between the intro and
F#--3-p2-2-2-0-2-0-1-0--------------|             the verse lick, it is played in every
B---3-p2-2-2-0-2-0-1-0--------------|             verse and between the chorus and verse)
                 p.p.p.

VERSE LICK:

C#---------------------------|
G#---------------------------|
D#----8-8-8-8-8-8-8-8-8-8-7--|   REPEAT
B----------------------------|
F#---------------------------|
B----------------------------|
      p.p.p.p.p.p.p.p.p.p.


CHORUS CHORDS:

C#--x-x--x-x-x-x--x--x---x-x-x-x--x-x--x-x-x-x--x-|
G#--x-x--x-x-x-x--x--x---x-x-x-x--x-x--x-x-x-x--x-|
D#--x-x--x-x-x-x--x--x---x-x-x-x--x-x--x-x-x-x--x-|
B---2-2--9-9-9-9--10-10--7-7-7-7--2-2--9-9-9-9--7-|  REPEAT
F#--2-2--9-9-9-9--10-10--7-7-7-7--2-2--9-9-9-9--7-|
B---2-2--9-9-9-9--10-10--7-7-7-7--2-2--9-9-9-9--7-|
Tap to rate this tab
 
# A B C D E F G H I J K L M N O P Q R S T U V W X Y Z