Song name
# A B C D E F G H I J K L M N O P Q R S T U V W X Y Z

Sevendust - Angels Son Acoustic tab

Sevendust
Angel's Son Acoustic Version

I'm pretty sure this is right, it sounds perfect to me.
Keep the acoustic at regular tune.

intro
----------------------------------------------------------------|
----------------------------------------------------------------|
----------------------------------------------------------------|
----5-------5-------5-------5-------5---5---5-------5---5---5---|
--3---3---3---3---3---3---3---3---3---3---3---3---3---3---3---3-|
-3------4-------5-------6-------6---------------6---------------|

-------------------------------------------------|
-------------------------------------------------|
-------------------------------------------------|
-----5------5-------5------5-------5---5---5---5-|
---3---3------3---3---3------3---3---3---3---3-3-|
-3--------3-----4--------4-----5---------------6-|

verse
-------------------------------------------------------------|
-------------------------------------------------------------|
-------------------------------------------------------------|
-----5-7-7-7-6-5-----5-5-4-6-7-----5-7-7-7-7/8-7-----5-5-4-3-|
-0-0-------------1-1-----------2-2---------------1-1---------|
-0-0-------------1-1-----------2-2---------------1-1---------|

chorus
----------|
----------|
----------|
-7-8-9-10-|
-6-7-8-9--|
-5-6-7-8--|repeat
Tap to rate this tab
 
# A B C D E F G H I J K L M N O P Q R S T U V W X Y Z