Song name
# A B C D E F G H I J K L M N O P Q R S T U V W X Y Z

Sevendust - Inside tab

Sevendust: Inside

Transcribed by: Andrew Zara (disturbedfreak0520@yahoo.com)

Date last modified: February 28, 2009

PLEASE DO NOT COPY THIS TAB TO ANOTHER SITE
WITHOUT AUTHORS' PERMISSION. THANK YOU.

Tuning: Drop B

Riff 1 w/ wah (alternate playing this riff w/ 2 guitars)
|----------------------------|
|----------------------------|
|----------------------------|
|----------------------------|
|----------------------------|
|-0-0-0-0-0-0--0--0-0-0-0--0-|

Riff 1a
|-----------------|
|-----------------|
|-----------------|
|-----------------|
|-----------------|
|-0-0-0-0-0-0-0-0-|

Riff 2 w/ distortion
|-----------------------------------------------------------------|
|-----------------------------------------------------------------|
|-----------------------------------------------------------------|
|-----------------------------------------------------------------|
|---------------------3h5-3p0-------------------------3h5-3h6-3h6-|
|-0-0-0-0-0-0-0-0-5h7---------3p0-0-0-0-0-0-0-0-0-5h7-------------|
  * * * * * * * *                 * * * * * * * *
|---------------------------------------------------------|
|---------------------------------------------------------|
|---------------------------------------------------------|
|---------------------------------------------------------|
|---------------------3h5-3p0-----------------------------|
|-0-0-0-0-0-0-0-0-5h7---------3p0-0-0-0-0-0-0-0-0-0-0-0-0-|
  * * * * * * * *                 * * * * * * * * * * * *

Riff 3   "Piece of me the motherf***er with the first laugh..."
|-------------------------------------------------|
|-------------------------------------------------|
|-------------------------------------------------|
|-------------------------------------------------|
|-0-3-0-1--0-3-0-1--0-0-0--0-3-0-1--0-3-2-3-2-3-0-|
|-0-3-0-1--0-3-0-1--0-0-0--0-3-0-1--0-3-2-3-2-3-0-|
  * * *    * * *           * * *    * * * * * *

Riff 4   "Try not to miss the warnings..."
|---------------------------------------------------------------|
|---------------------------------------------------------------|
|---------------------------------------------------------------|
|-5--5-5-5--5-5-5--5-5-8-10-8-0-3--3-3-3--3-3-3--3-3-10-12-10-0-|
|-5--5-5-5--5-5-5--5-5-8-10-8-0-3--3-3-3--3-3-3--3-3-10-12-10-0-|
|-5--5-5-5--5-5-5--5-5-8-10-8-0-3--3-3-3--3-3-3--3-3-10-12-10-0-|

|------------------------------------------------------------|
|-------------------------------------------------3-3-3--3-3-|
|-------------------------------------------------2-2-2--2-2-|
|-1--1-1-1--1-1-1--1-1-0-1-0-1-0-3--3-3-3--3-5-0--0-0-0--0-0-|
|-1--1-1-1--1-1-1--1-1-0-1-0-1-0-3--3-3-3--3-5-0--0-0-0--0-0-|
|-1--1-1-1--1-1-1--1-1-0-1-0-1-0-3--3-3-3--3-5-0--0-0-0--0-0-|

Play Riff 2

Riff 2a
|-----------------|
|-----------------|
|-----------------|
|-----------------|
|-0-3-0-2-3-0-2-3-|
|-0-3-0-2-3-0-2-3-|

Play Riff 1
Play Riff 3
Play Riff 4   "Try not miss the warnings..."
Play Riff 1
Play Riff 1a  "Here comes the payback!"

Riff 5
|-----------------------------------------------------------|
|-----------------------------------------------------------|
|-----------------------------------------------------------|
|-----------------3-3-3b-3b-3bp0----------------------------|
|-----------------------------------------------------------|
|-0-0-0-0-0-2-3-0----------------0-0-0-0-2-3-0-2-3-0-2-3bp0-|
  * * * *                        * * *

Riff 5a
|----------------|
|---11~------10~-|
|-7-7~~----7-7~~-|
|----------------|
|----------------|
|----------------|

Play Riff 4   "Try not to miss the warnings..."

Riff 6
|---------------------------------------------|
|---------------------------------------------|
|---------------------------------------------|
|---------------------------------------------|
|---------------------------------------------|
|-0-0-0-0-0-0-0-1-1-1-0-0-0-0-0-1-1-1-0-1-1-1-|
  * * * * * *         * * * *


Tap to rate this tab
 
# A B C D E F G H I J K L M N O P Q R S T U V W X Y Z