Song name
# A B C D E F G H I J K L M N O P Q R S T U V W X Y Z

Sevendust - Insecure tab

Sevendust: Insecure

Transcribed by: Andrew Zara (disturbedfreak0520@yahoo.com)

Date last modified: June 11, 2007

PLEASE DO NOT COPY THIS TAB TO ANOTHER SITE
WITHOUT AUTHORS' PERMISSION. THANK YOU.

Tuning: Drop Db (Db,Ab,Db,Gb,Bb,Eb)

Clint Lowery

E  E  E  E  E  E  E  E     E  E  E   E  E  E  E  E   
D#||--------------------------|---------------------------|
A#||--------------------------|---------------------------|
F#||--7-----7-----7-----7-----|--7-----7b--L--7-----7-----|
C#||-----0-----0-----0-----0--|-----0------0-----0-----0--|
G#||--------------------------|---------------------------|
C#||--------------------------|---------------------------|


  E  E  E  E  E  E  E   E     E  E  E  E  E  E  E  E   
---------------------------|--------------------------|
---------------------------|--------------------------|
--7-----7-----7-----7b--L--|--7-----7-----7-----7-----|
-----0-----0-----0------0--|-----0-----0-----0-----0--|
---------------------------|--------------------------|
---------------------------|--------------------------|


  E  E  E  E  E  E  E  E     E  E  E  E  E  E  E  E   
--------------------------|--------------------------|
--------------------------|--------------------------|
--------5-----------5-----|--------5-----------5-----|
-----0-----0-----0-----0--|-----0-----0-----0-----0--|
--3-----------5-----------|--------------------------|
--------------------------|--3-----------5-----------|


  E  E  E  E  E  E  E  E     E  E  E  E  E  E  E  E   
--------------------------|--------------------------|
--------------------------|--------------------------|
--------5-----5-----5-----|--------5-----5-----5-----|
-----0-----0-----0-----0--|-----0-----0-----0-----0--|
--------------------------|--------------------------|
--6-----------------------|--6-----------------------|


  E  E  E  E  E  E  E  E     E  E  E  E  E  E  E  E   
--------------------------|--------------------------|
--------------------------|--------------------------|
--------5-----5-----5-----|--------5-----5-----5-----|
-----0-----0-----0-----0--|-----0-----0-----0-----0--|
--------------------------|--------------------------|
--0-----------------------|--3-----------------------|


  E  E  E  E  E  E  E  E     E  E  E  E  E  E  E  E   
--------------------------|--------------------------|
--------------------------|--------------------------|
--------5-----5-----5-----|--------5-----5-----5-----|
-----0-----0-----0-----0--|-----0-----0-----0-----0--|
--3-----------------------|--------------------------|
--------------------------|--6-----------------------|


  E  E  E  E  E  E  E  E     E  E  E  E  E  E  E  E   
--------------------------|--------------------------|
--------------------------|--------------------------|
--------5-----------5-----|--------5-----------5-----|
-----0-----0-----0-----0--|-----0-----0-----0-----0--|
--3-----------5-----------|--------------------------|
--------------------------|--3-----------5-----------|


  E  E  E  E  E  E  E  E     E  E  E  E  E  E  E  E   
--------------------------|--------------------------|
--------------------------|--------------------------|
--------5-----5-----5-----|--------5-----5-----5-----|
-----0-----0-----0-----0--|-----0-----0-----0-----0--|
--------------------------|--------------------------|
--6-----------------------|--6-----------------------|


  E  E  E  E  E  E  E  E     E  E  E  E  E  E  E  E   
--------------------------|--------------------------|
--------------------------|--------------------------|
--------5-----5-----5-----|--------5-----5-----5-----|
-----0-----0-----0-----0--|-----0-----0-----0-----0--|
--------------------------|--------------------------|
--0-----------------------|--3-----------------------|


  E  E  E  E  E  E  E  E     E  E  E  E  E  E  E  E     E  E  E  E  E  E   
--------------------------|--------------------------|--------------------|
--------------------------|--------------------------|--------------------|
--------5-----5-----5-----|--------5-----5-----5-----|-----1--------2-----|
-----0-----0-----0-----0--|-----0-----0-----0-----0--|--------0--------0--|
--3-----------------------|--------------------------|--------------------|
--------------------------|--6-----------------------|--2--------0--------|


  E  E  E  E  E  E     E  E  E  E  E  E     E  E  E  E  E  E  E  E  E  E   
--------------------|--------------------|--------------------------------|
--------------------|--------------------|--------------------------------|
-----7--------------|-----1--------2-----|-----7-----------0--------0-----|
--------0-----0-----|--------0--------0--|--------0-----7--------7-----7--|
--------------------|--------------------|--------------------------------|
--8--------0--L--1--|--2--------0--------|--8--------5--------5-----------|


  E  E  E  E  E  E     E  E  E  E  E  E     E  E  E  E  E  E   
--------------------|--------------------|--------------------|
--------------------|--------------------|--------------------|
-----1--------2-----|-----7--------------|-----1--------2-----|
--------0--------0--|--------0-----0-----|--------0--------0--|
--------------------|--------------------|--------------------|
--2--------0--------|--8--------0--L--1--|--2--------0--------|


  W                Q      
------------------------||
------------------------||
------------------------||
--L----------------L----||
------------------------||
------------------------||

***********************************
***********************************
***********************************

John Connolly

E  E  E  E  E  E  E   E     E  E  E  E  E  E  E   E   
D#||---------------------------|---------------------------|
A#||---------------------------|---------------------------|
F#||--7-----7-----7-----7b--L--|--7-----7-----7-----7b--L--|
C#||-----0-----0-----0------0--|-----0-----0-----0------0--|
G#||---------------------------|---------------------------|
C#||---------------------------|---------------------------|


  E  E  E  E  E  E  E   E     E  E  E  E  E  E  E   E   
---------------------------|---------------------------|
---------------------------|---------------------------|
--7-----7-----7-----7b--L--|--7-----7-----7-----7b--L--|
-----0-----0-----0------0--|-----0-----0-----0------0--|
---------------------------|---------------------------|
---------------------------|---------------------------|


  E  E  E  E  E  E  E  E     E  E  E  E  E  E  E  E   
--------------------------|--------------------------|
--------------------------|--------------------------|
--7-----7-----7-----7-----|--7-----7-----7-----7-----|
-----0-----0-----0-----0--|-----0-----0-----0-----0--|
--------------------------|--------------------------|
--------------------------|--------------------------|


  E  E  E  E  E  E  E  E     E  E  E  E  E  E  E  E   
--------------------------|--------------------------|
--------------------------|--------------------------|
--5-----5-----5-----5-----|--5-----5-----5-----5-----|
-----0-----0-----0-----0--|-----0-----0-----0-----0--|
--------------------------|--------------------------|
--------------------------|--------------------------|


  E  E  E  E  E  E  E  E     E  E  E  E  E  E  E  E   
--------------------------|--------------------------|
--------------------------|--------------------------|
--7-----7-----7-----7-----|--7-----7-----7-----7-----|
-----0-----0-----0-----0--|-----0-----0-----0-----0--|
--------------------------|--------------------------|
--------------------------|--------------------------|


  E  E  E  E  E  E  E  E     E  E  E  E  E  E  E  E   
--------------------------|--------------------------|
--------------------------|--------------------------|
--5-----5-----5-----5-----|--5-----5-----5-----5-----|
-----0-----0-----0-----0--|-----0-----0-----0-----0--|
--------------------------|--------------------------|
--------------------------|--------------------------|


  E  E  E  E  E  E  E  E     E  E  E  E  E  E  E  E     Q    Q    Q    Q       
--------------------------|--------------------------|------------------------|
--------------------------|--------------------------|------------------------|
--7-----7-----7-----7-----|--7-----7-----7-----7-----|-------5----5----7br----|
-----0-----0-----0-----0--|-----0-----0-----0-----0--|------------------------|
--------------------------|--------------------------|------------------------|
--------------------------|--------------------------|------------------------|


  Q    Q    Q    Q         Q    Q    H           E  E  E  E  E  E  E  E   
------------------------|---------------------|--------------------------|
------------------------|---------------------|--------------------------|
--L----5----5----7br----|--L------------------|--7-----7-----7-----7-----|
------------------------|---------------------|-----0-----0-----0-----0--|
------------------------|---------------------|--------------------------|
------------------------|---------------------|--------------------------|


  E  E  E  E  E  E  E  E     E  E  E  E  E  E  E  E     E  E  E  E  E  E   
--------------------------|--------------------------|--------------------|
--------------------------|--------------------------|--------------------|
--5-----5-----5-----5-----|--5-----5-----5-----5-----|--7-----7-----7-----|
-----0-----0-----0-----0--|-----0-----0-----0-----0--|-----0-----0-----0--|
--------------------------|--------------------------|--------------------|
--------------------------|--------------------------|--------------------|


  E  E  E  E  E  E     E  E  E  E  E  E     E  E  E  E  E  E  E  E  E  E   
--------------------|--------------------|--------------------------------|
--------------------|--------------------|--------------------------------|
--7-----7-----7-----|--7-----7-----7-----|--7-----7-----7-----7-----7-----|
-----0-----0-----0--|-----0-----0-----0--|-----0-----0-----0-----0-----0--|
--------------------|--------------------|--------------------------------|
--------------------|--------------------|--------------------------------|


  E  E  E  E  E  E     E  E  E  E  E  E     E  E  E  E  E  E   
--------------------|--------------------|--------------------|
--------------------|--------------------|--------------------|
--7-----7-----7-----|--7-----7-----7-----|--7-----7-----7-----|
-----0-----0-----0--|-----0-----0-----0--|-----0-----0-----0--|
--------------------|--------------------|--------------------|
--------------------|--------------------|--------------------|


  <                       
  W                Q      
------------------------||
------------------------||
--7----------------L----||
--0----------------L----||
------------------------||
------------------------||




Duration Legend
---------------
W - whole
H - half
Q - quarter
E - 8th
S - 16th
T - 32nd
X - 64th
. - note dotted
|-n-|  - n-tuplets


Tablature Legend
----------------
L - tied note
x - dead note
g - grace note
(n) - ghost note
> - accentuded note
NH - natural harmonic
AH - artificial harmonic
TH - tapped harmonic
SH - semi harmonic
PH - pitch harmonic
h - hammer on
p - pull off
b - bend
br - bendRelease
pb - preBend
pbr - preBendRelease
brb - bendReleaseBend
\n/ - tremolo bar dip
\n - tremolo bar dive
-/n - tremolo bar Release up
/n\ - tremolo bar inverted dip
/n - tremolo bar return
-\n - tremolo bar Release down
S - shift slide
s - legato slide
/ -  slide into from below or out of upwards
\ -  slide into from above or out of downwards
~ - vibrato
W - wide vibrato
tr - trill
TP - tremolo picking
T - tapping
S - slap
P - pop
< - fade in
^ - brush up
v - brush down
Tap to rate this tab
 
# A B C D E F G H I J K L M N O P Q R S T U V W X Y Z