Song name
# A B C D E F G H I J K L M N O P Q R S T U V W X Y Z

Sevendust - Follow tab

Band- Sevendust
Song- Follow

Intro : guitar 1 :
----------------------------------------|
-----4-------4---4-----5-7------4-------|
------------------------------------6---|
---6---6---6---6---6-6--------6---6-----|
----------------------------------------|
----------------------------------------|

guitar 2 :
-------------------------------9-9---|
---9-11-11--9-11--9-11--12-11--------|
-------------------------------------|
-------------------------------------|
-------------------------------------|
-------------------------------------|

Verse :
Gtr1 :                  gtr 2 :after a while
-----------------------|-------------------------5---|
-----------------------|---------------4-------------|
-----------------------|-----4-4-6---4---4-----4-----|
---1-2-2---1-2-4-2-1---|---6-----------------6-------|
-----------------------|-----------------------------|
-----------------------|-----------------------------|

Pre-chorus :
-----------------------|
-----------------------|
-----------------------|
---6---8---4---0---2---|
---6---8---4---0---2---|
---4---6---2---0---0---|

Chorus :
---------------------------------------------------|
---------------------------------------------------|
---------------------------------------------------|
---8-8-8-8-8---9-9-9-9-9---7-7-7-7-7---6-6-6-6-6---|
---8-8-8-8-8---9-9-9-9-9---7-7-7-7-7---6-6-6-6-6---|
---8-8-8-8-8---9-9-9-9-9---7-7-7-7-7---6-6-6-6-6---|

-----------------------------------------------------------------|
-----------------------------------------------------------------|
-----------------------------------------------------------------|
---8-8-8-8-8---9-9-9-9-9---11-11-11-11-11-11-12-12-12-12-12-12---|
---8-8-8-8-8---9-9-9-9-9---11-11-11-11-11-11-12-12-12-12-12-12---|
---8-8-8-8-8---9-9-9-9-9---11-11-11-11-11-11-12-12-12-12-12-12---|

Bridge :
-----------------------------------------------------|
-----------------------------------------------------|
-----------------------------------------------------|
---8-8-8-8-8-8-9-9-9-9-9-9-7-7-7-7-7-7-0-0-0-0-0-0---|
---8-8-8-8-8-8-9-9-9-9-9-9-7-7-7-7-7-7-0-0-0-0-0-0---|
---8-8-8-8-8-8-9-9-9-9-9-9-7-7-7-7-7-7-0-0-0-0-0-0---|

-----------------------------------------12-13-10---10-12------------------|
--------------------------------------10----------8----------12-12-14-11---|
---6-8-8---6---------6------------------------------------10---------------|
-------------8---9-9---9-8-6-9---------------------------------------------|
-------------------------------7-------------------------------------------|
---------------------------------------------------------------------------|
Tap to rate this tab
# A B C D E F G H I J K L M N O P Q R S T U V W X Y Z