Song name
# A B C D E F G H I J K L M N O P Q R S T U V W X Y Z

Sevendust - Never tab

Band- Sevendust
Song- Never
Album- Next
Tuning- Drop B(B,F#,B,E,G#,C#)

Intro(Played very quietly and gradually gets louder as you reach the Pre-Chorus)All palm muted.
|---------------------------------------------------|
|---------------------------------------------------|
|---------------------------------------------------|
|-2--3-2-0-2-3-2-2-2--2-2-2-2--3-2-0-2-3-2-2-2--2-3-|
|---------------------------------------------------|
|---------------------------------------------------|

Play the Intro through the whole verse and gradually release the P.M. right before the Pre-Chorus.

Pre-Chorus
|------------------------------------------------------------------|
|------------------------------------------------------------------|
|------------------------------------------------------------------|
|------------------------------------------------------------------|
|------------------------------------------------------------------|
|-2222/7777766662222/3333333000000-2222/77777667799666663333355555-|

Chorus
|-------------------------------------------------|
|-------------------------------------------------|
|-------------------------------------------------|
|-0-3-0--0--0-0-3-0--0-3-0--0--0-0-3-0--0-3-0-5-5-|
|-0-3-0--0--0-0-3-0--0-3-0--0--0-0-3-0--0-3-0-5-5-|
|-0-3-0--0--0-0-3-0--0-3-0--0--0-0-3-0--0-3-0-5-5-|

|-------------------------------------------------|
|-------------------------------------------------|
|---------------------------------------------17\-|
|-0-3-0--0--0-0-3-0--0-3-0--0--0-0-3-0--0-3-0-x---|
|-0-3-0--0--0-0-3-0--0-3-0--0--0-0-3-0--0-3-0-15\-|
|-0-3-0--0--0-0-3-0--0-3-0--0--0-0-3-0--0-3-0-----|

Fill
|---------|
|---------|
|-17\-----|
|-x----2~-|
|-15\--2~-|
|------2~-|

Play Verse

Play Pre-Chorus

Play Chorus

Bridge
|---------------------------------------------------|
|---------------------------------------------------|
|---------------------------------------------------|
|-2--3-2-0-2-3-2-2-2--2-2-2-2--3-2-0-2-3-2-2-2--2-3-|
|-2--3-2-0-2-3-2-2-2--2-2-2-2--3-2-0-2-3-2-2-2--2-3-|
|-2--3-2-0-2-3-2-2-2--2-2-2-2--3-2-0-2-3-2-2-2--2-3-|

Solo- Don't Know(For solo backing play bridge with just single notes on the low B string 
is palm muted.)

Play Chorus

Outro
|---------|
|---------|
|-17\-----|
|-x----0~-|
|-15\--0~-|
|------0~-|

That's all. Desertion and Hero coming soon.(The intro for Desertion is giving me hard 
but I'll get it soon.)
Tap to rate this tab
# A B C D E F G H I J K L M N O P Q R S T U V W X Y Z