Song name
# A B C D E F G H I J K L M N O P Q R S T U V W X Y Z

Sevendust - Unraveling tab

UNRAVELING tuning - C G C F G C
Tabbed by JDD36

X - muted string		(note). - immediately mute note         ~ - vibrato
/ - slide up            (note)  - palm mute
b - bend,   r - release   .                  (note)* - harmonic
h - hammer on             p     - pull off


Intro
Rhythm Guitar
|---------------------------------------------------------------------------------|
|-7-7-7-7-7-7-7-7-8-8-8-8-8-8-8-8-10-10-10-10-10-10-10-10-12-12-12-12-12-12-12-12-|
|-5-5-5-5-5-5-5-5-5-5-5-5-5-5-5-5--8--8--8--8--8--8--8--8--8--8--8--8--8--8--8--8-|
|-5-5-5-5-5-5-5-5-5-5-5-5-5-5-5-5--8--8--8--8--8--8--8--8--8--8--8--8--8--8--8--8-|

|-------------------------------------------------3-3-3-3-3-3-3-3-3-3-3-3---------|
|-13-13-13-13-13-13-13-13-12-12-12-12-12-12-12-12-1-1-1-1-1-1-1-1-1-1-1-1-3-3-3-3-|
|-10-10-10-10-10-10-10-10-10-10-10-10-10-10-10-10-1-1-1-1-1-1-1-1-1-1-1-1-3-3-3-3-|
|-10-10-10-10-10-10-10-10-10-10-10-10-10-10-10-10-1-1-1-1-1-1-1-1-1-1-1-1-3-3-3-3-|

Lead guitar
|---------------------------------------------------------------------------------|
|---------------------------------------------------------------------------------|
|----12--12--12--14----14b15r14-12------12---12---12---14----14b15r14-12----------|
|---------------------------------------------------------------------------------|
|---------------------------------------------------------------------------------|
|---------------------------------------------------------------------------------|

|---------------------------------------------------------------------------------|
|---------------------------------------------------------------------------------|
|-------17----17----17-------------------------------17--17--17--19~---17----19---|
|-------------------------20-------19-------12------------------------------------|
|---------------------------------------------------------------------------------|
|---------------------------------------------------------------------------------|

Rhythm Guitar
|-5\----------------------------------3.---5\-------------------------------------|
|-5\----------------------------------3.---5\-------------------------------------|
|-5\----------------------------------3.---5\-------------------------------------|

Lead Guitar
|--0--0--0--0--0--0--0--0-0-0-0-0-0-0-0-0--0--0--0--0--0--0--0--0-0-0-0-0-0-0-0-0-|
|--x--x--x--x--x--x--x--x-x-x-x-x-x-x-x-x--x--x--x--x--x--x--x--x-x-x-x-x-x-x-x-x-|
|-10-12-12-12-10-12-12-10-7-7-7-5-7-5-7-7-10-12-12-12-10-12-12-10-7-5-7-8-7-5-7-7-|
|---------------------------------------------------------------------------------|
|---------------------------------------------------------------------------------|
|---------------------------------------------------------------------------------|

Verse 1
Guitar 1
|----------------------------------------------------|
|----------------------------------------------------|
|------0----0-------0----0-------0----0-------0----0-|
|----7----7-------7----7-------7----7-------7----7---|
|----------------------------------------------------|
|-5------------5------------5------------5-----------|

|--------------------------------------------------------------|
|--------------------------------------------------------------|
|-------0-----0--------0-----0---------0-----0--------0-----0--|
|----10----10-------10----10--------12----12-------10----10----|
|--------------------------------------------------------------|
|-8--------------8--------------10--------------8--------------|

|------------------------0-------------------------0-|
|------------------------0-------------------------0-|
|------0----0-------0------------0----0-------0------|
|----7----7-------8----8-------7----7-------8----8---|
|----------------------------------------------------|
|-5------------5------------5------------5-----------|

|------------------------------------------------------------|
|------------------------------------------------------------|
|-------0-----0--------0-----0---------0-----0-------0----0--|
|----10----10-------10----10--------12----12-------3----3----|
|------------------------------------------------------------|
|-8--------------8--------------10--------------3------------|
Guitar 2
|----------------------------------------------------|
|-5*-------------------------------------------------|
|--------------------------------------------------5*|
|----------------------------------------------------|
|----------------------------------------------------|
|----------------------------------------------------|

|----------------------------------------------------|
|-5*-------------------------------------------------|
|------------------------------------------5*--------|
|----------------------------------------------------|
|----------------------------------------------------|
|----------------------------------------------------|

|----------------------------------------------------|
|-5*-------------------------------------------------|
|--------------------------------------------------5*|
|----------------------------------------------------|
|----------------------------------------------------|
|----------------------------------------------------|

|-----------------------------------5*---------------|
|-5*---------------------5*--------------------------|
|---------------------5*-----------------------------|
|----------------------------------------------------|
|----------------------------------------------------|
|----------------------------------------------------|

Pre Chorus
|------------------------------------------------------------------------------------------------|
|------------------------------------------------------------------------------------------------|
|-----15\-------15\---------------15\-------15\------------------7-7-7-7-7-7-7-7-7-7-7-7-7-7-7-7-|
|-1.--13\---1.--13\---1-3-0---1.--13\---1.--13\---1-3-3---0------x-x-x-x-x-x-x-x-x-x-x-x-x-x-x-x-|
|-1.--13\---1.--13\---1-3-0---1.--13\---1.--13\---1-3-3---0------5-5-5-5-5-5-5-5-5-5-5-5-5-5-5-5-|
|-1.--------1.--------1-3-0---1.--------1.--------1-3-3---0--------------------------------------|

Chorus
Rhythm Guitar
|---------------------------------------------------------------------------------|
|-7-7-7-7-7-7-7-7-8-8-8-8-8-8-8-8-10-10-10-10-10-10-10-10-12-12-12-12-12-12-12-12-|
|-5-5-5-5-5-5-5-5-5-5-5-5-5-5-5-5--8--8--8--8--8--8--8--8--8--8--8--8--8--8--8--8-|
|-5-5-5-5-5-5-5-5-5-5-5-5-5-5-5-5--8--8--8--8--8--8--8--8--8--8--8--8--8--8--8--8-|

|-------------------------------------------------3-3-3-3-3-3-3-3-3-3-3-3---------|
|-13-13-13-13-13-13-13-13-12-12-12-12-12-12-12-12-1-1-1-1-1-1-1-1-1-1-1-1-3-3-3-3-|
|-10-10-10-10-10-10-10-10-10-10-10-10-10-10-10-10-1-1-1-1-1-1-1-1-1-1-1-1-3-3-3-3-|
|-10-10-10-10-10-10-10-10-10-10-10-10-10-10-10-10-1-1-1-1-1-1-1-1-1-1-1-1-3-3-3-3-|

Lead guitar
|---------------------------------------------------------------------------------|
|---------------------------------------------------------------------------------|
|----12--12--12--14----14b15r14-12------12---12---12---------14b15r14-12----------|
|------------------------------------------------------12-------------^^(14th fret 2nd time
|---------------------------------------------------------------------------------| through)
|---------------------------------------------------------------------------------|

|---------------------------------------------------------------------------------|
|---------------------------------------------------------------------------------|
|-------17----17----17-------------------------------17--17--17--19~---17----19~--|
|-------------------------20-------19-------12------------------------------------|
|---------------------------------------------------------------------------------|
|---------------------------------------------------------------------------------|

Rhythm Guitar
|-5\----------------------------------3.---5\-------------------------------3-----|
|-5\----------------------------------3.---5\-------------------------------3-----|
|-5\----------------------------------3.---5\-------------------------------3-----|

Lead Guitar
|--0--0--0--0--0--0--0--0-0-0-0-0-0-0-0-0--0--0--0--0--0--0--0--0-0-0-0-0-0-0-----|
|--x--x--x--x--x--x--x--x-x-x-x-x-x-x-x-x--x--x--x--x--x--x--x--x-x-x-x-x-x-x-----|
|-10-12-12-12-10-12-12-10-7-7-7-5-7-5-7-7-10-12-12-12-10-12-12-10-7-7-7-8-7-5-----|
|---------------------------------------------------------------------------------|
|---------------------------------------------------------------------------------|
|---------------------------------------------------------------------------------|
Verse 2
Guitar 1
|----------------------------------------------------|
|----------------------------------------------------|
|------0----0-------0----0-------0----0-------0----0-|
|----7----7-------7----7-------7----7-------7----7---|
|----------------------------------------------------|
|-5------------5------------5------------5-----------|

|--------------------------------------------------------------|
|--------------------------------------------------------------|
|-------0-----0--------0-----0---------0-----0--------0-----0--|
|----10----10-------10----10--------12----12-------10----10----|
|--------------------------------------------------------------|
|-8--------------8--------------10--------------8--------------|

|------------------------0----------------------------|
|------------------------0----------------------------|
|------0----0-------0------------0----0-------0----0--|
|----7----7-------8----8-------7----7-------3----3----|
|-----------------------------------------------------|
|-5------------5------------5------------3------------|

Guitar 2
|----------------------------------------------------|
|-5*-------------------------------------------------|
|--------------------------------------------------5*|
|----------------------------------------------------|
|----------------------------------------------------|
|----------------------------------------------------|

|----------------------------------------------------|
|-5*-------------------------------------------------|
|------------------------------------------5*--------|
|----------------------------------------------------|
|----------------------------------------------------|
|----------------------------------------------------|

|-----------------------------------------------------|
|-5*--------------------------------------------------|
|-----------------------------------------------------|
|-----------------------------------------------------|
|-----------------------------------------------------|
|-----------------------------------------------------|

Chorus 2
Rhythm Guitar
|---------------------------------------------------------------------------------|
|-7-7-7-7-7-7-7-7-8-8-8-8-8-8-8-8-10-10-10-10-10-10-10-10-12-12-12-12-12-12-12-12-|
|-5-5-5-5-5-5-5-5-5-5-5-5-5-5-5-5--8--8--8--8--8--8--8--8--8--8--8--8--8--8--8--8-|
|-5-5-5-5-5-5-5-5-5-5-5-5-5-5-5-5--8--8--8--8--8--8--8--8--8--8--8--8--8--8--8--8-|

|-------------------------------------------------3-3-3-3-3-3-3-3-3-3-3-3---------|
|-13-13-13-13-13-13-13-13-12-12-12-12-12-12-12-12-1-1-1-1-1-1-1-1-1-1-1-1-3-3-3-3-|
|-10-10-10-10-10-10-10-10-10-10-10-10-10-10-10-10-1-1-1-1-1-1-1-1-1-1-1-1-3-3-3-3-|
|-10-10-10-10-10-10-10-10-10-10-10-10-10-10-10-10-1-1-1-1-1-1-1-1-1-1-1-1-3-3-3-3-|

Lead guitar
|---------------------------------------------------------------------------------|
|---------------------------------------------------------------------------------|
|----12--12--12--14----14b15r14-12------12---12---12---------14b15r14-12----------|
|------------------------------------------------------12-------------^^----------|
|--------------------------------------------------------------------(14th fret 2nd time through)
|---------------------------------------------------------------------------------|

|---------------------------------------------------------------------------------|
|---------------------------------------------------------------------------------|
|-------17----17----17-------------------------------17--17--17--19~---17----19~--|
|-------------------------20-------19-------12------------------------------------|
|---------------------------------------------------------------------------------|
|---------------------------------------------------------------------------------|

Rhythm Guitar
|-----------------------------------------------------------------|
|-----------------------------------------------------------------|
|-5-5-5-5-5-5-5-5-5-5-5-5-5-5-5-5-7-7-7-7-7-7-7-7-7-7-7-7-7-7-7-7-|
|-5-5-5-5-5-5-5-5-5-5-5-5-5-5-5-5-7-7-7-7-7-7-7-7-0-0-0-0-0-0-0-0-|
|-3-3-3-3-3-3-3-3-3-3-3-3-3-3-3-3-5-5-5-5-5-5-5-5-0-0-0-0-0-0-0-0-|
|-------------------------------------------------0-0-0-0-0-0-0-0-|

Lead Guitar 
|-----------------------------------------------------------------|
|--------------------------------15~-------------17~--------------|
|-19b20r19-------15------17---------------------------------------|
|-----------------------------------------------------------------|
|-----------------------------------------------------------------|
|-----------------------------------------------------------------|
(I'm not 100% sure on this)

Bridge
Rhythm Guitar
|-1-----1-----1-------------------7-----7-----7-------------------|
|-1-----1-----1-------------------5-----5-----5-------------------|
|-1-----1-----1-------------------5-----5-----5-------------------|

|-10---10----10------------------10----10----10----10----10-------|
|--8----8-----8------------------10----10----10----10----10-------|
|--8----8-----8------------------10----10----10----10----10-------|

Lead Guitar
|---------------------0-------------------------------0-----------|
|-----------------------------------------------------------------|
|-17b18~----------------------------------------------------------|
|-----------------5/7---7-7/8-7---7-----7-----7---7/8---8-8/10-8--|
|---------------------------------5-----5-----5-------------------|
|---------------------------------5-----5-----5-------------------|

|--------------------0--------------------------------------------------|
|-----------------------------------------------------------------------|
|-----------------------------------------------------------------------|
|-10---10---10--10/12-12-13-12-10-10---10---10-----15-15-15-15-12-10-12-|
|--8----8----8--------------------10---10---10--------------------------|
|--8----8----8--------------------10---10---10--------------------------|

Rhythm Guitar
|-1-----1-----1-------------------7-----7-----7-------------------|
|-1-----1-----1-------------------5-----5-----5-------------------|
|-1-----1-----1-------------------5-----5-----5-------------------|

|-8-8-8-8-8-8-8-8-8-8-8-8-8-8-8-8-10-10-10-10-10-10-10-10-12-12-12-12-0-0-0-0-|
|-8-8-8-8-8-8-8-8-8-8-8-8-8-8-8-8-10-10-10-10-10-10-10-10-12-12-12-12-0-0-0-0-|
|-8-8-8-8-8-8-8-8-8-8-8-8-8-8-8-8-10-10-10-10-10-10-10-10-12-12-12-12-0-0-0-0-|
                                                                      . . . .

Lead Guitar
|---------------------0-------------------------------0-----------|
|-----------------------------------------------------------------|
|-----------------------------------------------------------------|
|-1-----1-----1---5/7---7-7/8-7---7-----7-----7---7/8---8-8/10-8--|
|-1-----1-----1-------------------5-----5-----5-------------------|
|-1-----1-----1-------------------5-----5-----5-------------------|

|-----------------------------------------------------------------|
|-----------------------------------------------------------------|
|-----------------7-----------7---8-----7-----8--11----12----14---|
|-10----8----10--------10-----------------------------------------|
|-----------------------------------------------------------------|
|-----------------------------------------------------------------|

Rhythm Gitar
|-0-------0-------0-------0-------|
|-0-------0-------0-------0-------|
|-0-------0-------0-------0-------|
|-5-------8------10------13-------|
|-5-------8------10------13-------|
|-5-------8------10------13-------|

Ending
Rhythm Guitar
|-5-5-5-5-5-5-5-5-5-5-5-5-5-5-5-5-3-3-3-3-3-3-3-3-3-3-3-3-3-3-3-3-|
|-5-5-5-5-5-5-5-5-5-5-5-5-5-5-5-5-1-1-1-1-1-1-1-1-1-1-1-1-1-1-1-1-|
|-3-3-3-3-3-3-3-3-3-3-3-3-3-3-3-3-1-1-1-1-1-1-1-1-1-1-1-1-1-1-1-1-|
|---------------------------------1-1-1-1-1-1-1-1-1-1-1-1-1-1-1-1-|

|-5-5-5-5-5-5-5-5-5-5-5-5-5-5-5-5-3-------------------------------|
|-5-5-5-5-5-5-5-5-5-5-5-5-5-5-5-5-1-------------------------------|
|-3-3-3-3-3-3-3-3-3-3-3-3-3-3-3-3-1-------------------------------|
|---------------------------------1-------------------------------|

Lead Guitar
|------------------------------------------------------------------------------------------------|
|------------------------------------------------------------------------------------------------|
|-14-14-14-14-14-14-14-14-15-15-15-15-15-15-15-15-17-17-17-17-17-17-17-17-17-17-17-17-17-15-15-14|
|------------------------------------------------------------------------------------------------|
|------------------------------------------------------------------------------------------------|
|------------------------------------------------------------------------------------------------|

|------------------------------------------------------------------------------------------------|
|------------------------------------------------------------------------------------------------|
|15-15-15-15-15-15-15-15-14-14-14-14-14-14-14-14-12----------------------------------------------|
|------------------------------------------------------------------------------------------------|
|------------------------------------------------------------------------------------------------|
|------------------------------------------------------------------------------------------------|
Tap to rate this tab
# A B C D E F G H I J K L M N O P Q R S T U V W X Y Z