Song name
# A B C D E F G H I J K L M N O P Q R S T U V W X Y Z

Sevendust - Enemy tab

Sevendust: Enemy

Transcribed by: Andrew Zara (disturbedfreak0520@yahoo.com)

Date last modified: June 11, 2007

PLEASE DO NOT COPY THIS TAB TO ANOTHER SITE
WITHOUT AUTHORS' PERMISSION. THANK YOU.

Tuning: Drop A# (A#,F,A#,D#,G,C)

Clint Lowery

S S S S S S S E  S S S S S S S    S S S S S S E  S S S S  S  S  S  S  
C ||---------------------------------|-------------------------------------|
G ||---------------------------------|-------------------------------------|
D#||---------------------------------|-------------------------------------|
A#||---------------------------------|-------------------------------------|
F ||----------x-x----------x-------x-|----------x-x------------------------|
A#||--0-0-0-0-x-x-0----0---x-0-0---x-|--0-0-0-0-x-x-0--3-3-3-3-10-10-10-10-|


  S S S S S S S E  S S S S S S S    S S S S S S E  S S S S S S S S  
---------------------------------|---------------------------------|
---------------------------------|---------------------------------|
---------------------------------|---------------------------------|
---------------------------------|---------------------------------|
----------x-x----------x-------x-|----------x-x--------------------|
--0-0-0-0-x-x-0----0---x-0-0---x-|--0-0-0-0-x-x-0--3-3-3-3-7-7-7-7-|


  S S S S S S S E  S S S S S S S    S S S S S S E  S S S S  S  S  S  S  
---------------------------------|-------------------------------------|
---------------------------------|-------------------------------------|
---------------------------------|-------------------------------------|
---------------------------------|-------------------------------------|
--0-0-0-0-x-x-0----0---x-0-0---x-|--0-0-0-0-x-x-0--3-3-3-3-10-10-10-10-|
--0-0-0-0-x-x-0----0---x-0-0---x-|--0-0-0-0-x-x-0--3-3-3-3-10-10-10-10-|


  S S S S S S S E  S S S S S S S    S S S S S S E  S S S S S S S S  
---------------------------------|---------------------------------|
---------------------------------|---------------------------------|
---------------------------------|---------------------------------|
---------------------------------|---------------------------------|
--0-0-0-0-x-x-0----0---x-0-0---x-|--0-0-0-0-x-x-0--3-3-3-3-7-7-7-7-|
--0-0-0-0-x-x-0----0---x-0-0---x-|--0-0-0-0-x-x-0--3-3-3-3-7-7-7-7-|


  S S S S S S S E  S S S S S S S    S S S S S S S E  S S S S S S S  
---------------------------------|---------------------------------|
---------------------------------|---------------------------------|
---------------------------------|---------------------------------|
---------------------------------|---------------------------------|
----------x-x----------x-------x-|----------x-x----------x-------x-|
--0-0-0-0-x-x-0----0---x-0-0---x-|--0-0-0-0-x-x-0----0---x-0-0---x-|


  S S S S S S S E  S S S S S S S    S S S S S S S E  S S S S S S S  
---------------------------------|---------------------------------|
---------------------------------|---------------------------------|
---------------------------------|---------------------------------|
---------------------------------|---------------------------------|
----------x-x----------x-------x-|----------x-x----------x-------x-|
--0-0-0-0-x-x-0----0---x-0-0---x-|--0-0-0-0-x-x-0----0---x-0-0---x-|


   S  S  S  S  S  S  S  S  S  S  S  S  S  S  S  S  
--------------------------------------------------|
--------------------------------------------------|
--17-17-17-17-17-17-17-17-17-17-17-17-17-17-17-17-|
--------------------------------------------------|
--15-15-15-15-15-15-15-15-15-15-15-15-15-15-15-15-|
--------------------------------------------------|


   S  S  S  S  S  S  S  S  S  S  S  S  S  S  S  S  
--------------------------------------------------|
--------------------------------------------------|
--17-17-17-17-17-17-17-17-17-17-17-17-17-17-17-17-|
--------------------------------------------------|
--15-15-15-15-15-15-15-15-15-15-15-15-15-15-15-15-|
--------------------------------------------------|


   S  S  S  S  S  S  S  S  S  S  S  S  S  S  S  S  
--------------------------------------------------|
--------------------------------------------------|
--17-17-17-17-17-17-17-17-17-17-17-17-17-17-17-17-|
--------------------------------------------------|
--15-15-15-15-15-15-15-15-15-15-15-15-15-15-15-15-|
--------------------------------------------------|


   S  S  S  S  S  S  S  S  S  S  S  S  S  S  S  S  
--------------------------------------------------|
--------------------------------------------------|
--17-17-17-17-17-17-17-17-17-17-17-17-17-17-17-17-|
--------------------------------------------------|
--15-15-15-15-15-15-15-15-15-15-15-15-15-15-15-15-|
--------------------------------------------------|


   S  S  S  S  S  S  S  S  S  S  S  S  S  S  S  S  
--------------------------------------------------|
--------------------------------------------------|
--17-17-17-17-17-17-17-17-17-17-17-17-17-17-17-17-|
--------------------------------------------------|
--15-15-15-15-15-15-15-15-15-15-15-15-15-15-15-15-|
--------------------------------------------------|


   S  S  S  S  S  S  S  S  S  S  S  S  S  S  S  S  
--------------------------------------------------|
--------------------------------------------------|
--17-17-17-17-17-17-17-17-17-17-17-17-17-17-17-17-|
--------------------------------------------------|
--15-15-15-15-15-15-15-15-15-15-15-15-15-15-15-15-|
--------------------------------------------------|


   S  S  S  S  S  S  S  S  S  S  S  S  S  S  S  S  
--------------------------------------------------|
--------------------------------------------------|
--17-17-17-17-17-17-17-17-17-17-17-17-17-17-17-17-|
--------------------------------------------------|
--15-15-15-15-15-15-15-15-15-15-15-15-15-15-15-15-|
--------------------------------------------------|


   S  S  S  S  S  S  S  S  S  S  S  S  S  S  S  S  
--------------------------------------------------|
--------------------------------------------------|
--17-17-17-17-17-17-17-17-17-17-17-17-17-17-17-17-|
--------------------------------------------------|
--15-15-15-15-15-15-15-15-15-15-15-15-15-15-15-15-|
--------------------------------------------------|


  S S S S S S S E  S S S S S S S    S S S S S S S E  S S S S S S S  
---------------------------------|---------------------------------|
---------------------------------|---------------------------------|
---------------------------------|---------------------------------|
---------------------------------|---------------------------------|
--0-0-0-0-x-x-0----0---x-0-0---x-|--0-0-0-0-x-x-0----0---x-0-0---x-|
--0-0-0-0-x-x-0----0---x-0-0---x-|--0-0-0-0-x-x-0----0---x-0-0---x-|


  S S S S S S S E  S S S S S S S    S S S S S S S S H         
---------------------------------|---------------------------|
---------------------------------|---------------------------|
---------------------------------|---------------------------|
---------------------------------|---------------------------|
--0-0-0-0-x-x-0----0---x-0-0---x-|--0-0-0-0-x-x-0-0----------|
--0-0-0-0-x-x-0----0---x-0-0---x-|--0-0-0-0-x-x-0-0----------|


  S S S S S S S E  S S S S S S S    S S S S S S E  S S S S  S  S  S  S  
---------------------------------|-------------------------------------|
---------------------------------|-------------------------------------|
---------------------------------|-------------------------------------|
---------------------------------|-------------------------------------|
--0-0-0-0-x-x-0----0---x-0-0---x-|--0-0-0-0-x-x-0--3-3-3-3-10-10-10-10-|
--0-0-0-0-x-x-0----0---x-0-0---x-|--0-0-0-0-x-x-0--3-3-3-3-10-10-10-10-|


  S S S S S S S E  S S S S S S S    S S S S S S E  S S S S S S S S  
---------------------------------|---------------------------------|
---------------------------------|---------------------------------|
---------------------------------|---------------------------------|
---------------------------------|---------------------------------|
--0-0-0-0-x-x-0----0---x-0-0---x-|--0-0-0-0-x-x-0--3-3-3-3-7-7-7-7-|
--0-0-0-0-x-x-0----0---x-0-0---x-|--0-0-0-0-x-x-0--3-3-3-3-7-7-7-7-|


  S S S S S S S E  S S S S S S S    S S S S S S E  S S S S  S  S  S  S  
---------------------------------|-------------------------------------|
---------------------------------|-------------------------------------|
---------------------------------|-------------------------------------|
---------------------------------|-------------------------------------|
--0-0-0-0-x-x-0----0---x-0-0---x-|--0-0-0-0-x-x-0--3-3-3-3-10-10-10-10-|
--0-0-0-0-x-x-0----0---x-0-0---x-|--0-0-0-0-x-x-0--3-3-3-3-10-10-10-10-|


  S S S S S S S E  S S S S S S S    S S S S S S E  S S S S S S S S  
---------------------------------|---------------------------------|
---------------------------------|---------------------------------|
---------------------------------|---------------------------------|
---------------------------------|---------------------------------|
--0-0-0-0-x-x-0----0---x-0-0---x-|--0-0-0-0-x-x-0--3-3-3-3-7-7-7-7-|
--0-0-0-0-x-x-0----0---x-0-0---x-|--0-0-0-0-x-x-0--3-3-3-3-7-7-7-7-|


   S  S  S  S  S  S  S  S  S  S  S  S  S  S  S  S  
--------------------------------------------------|
--------------------------------------------------|
--17-17-17-17-17-17-17-17-17-17-17-17-17-17-17-17-|
--------------------------------------------------|
--15-15-15-15-15-15-15-15-15-15-15-15-15-15-15-15-|
--------------------------------------------------|


   S  S  S  S  S  S  S  S  S  S  S  S  S  S  S  S  
--------------------------------------------------|
--------------------------------------------------|
--17-17-17-17-17-17-17-17-17-17-17-17-17-17-17-17-|
--------------------------------------------------|
--15-15-15-15-15-15-15-15-15-15-15-15-15-15-15-15-|
--------------------------------------------------|


   S  S  S  S  S  S  S  S  S  S  S  S  S  S  S  S  
--------------------------------------------------|
--------------------------------------------------|
--17-17-17-17-17-17-17-17-17-17-17-17-17-17-17-17-|
--------------------------------------------------|
--15-15-15-15-15-15-15-15-15-15-15-15-15-15-15-15-|
--------------------------------------------------|


   S  S  S  S  S  S  S  S  S  S  S  S  S  S  S  S  
--------------------------------------------------|
--------------------------------------------------|
--17-17-17-17-17-17-17-17-17-17-17-17-17-17-17-17-|
--------------------------------------------------|
--15-15-15-15-15-15-15-15-15-15-15-15-15-15-15-15-|
--------------------------------------------------|


   S  S  S  S  S  S  S  S  S  S  S  S  S  S  S  S  
--------------------------------------------------|
--------------------------------------------------|
--17-17-17-17-17-17-17-17-17-17-17-17-17-17-17-17-|
--------------------------------------------------|
--15-15-15-15-15-15-15-15-15-15-15-15-15-15-15-15-|
--------------------------------------------------|


   S  S  S  S  S  S  S  S  S  S  S  S  S  S  S  S  
--------------------------------------------------|
--------------------------------------------------|
--17-17-17-17-17-17-17-17-17-17-17-17-17-17-17-17-|
--------------------------------------------------|
--15-15-15-15-15-15-15-15-15-15-15-15-15-15-15-15-|
--------------------------------------------------|


   S  S  S  S  S  S  S  S  S  S  S  S  S  S  S  S  
--------------------------------------------------|
--------------------------------------------------|
--17-17-17-17-17-17-17-17-17-17-17-17-17-17-17-17-|
--------------------------------------------------|
--15-15-15-15-15-15-15-15-15-15-15-15-15-15-15-15-|
--------------------------------------------------|


   S  S  S  S  S  S  S  S  S  S  S  S  S  S  S  S  
--------------------------------------------------|
--------------------------------------------------|
--17-17-17-17-17-17-17-17-17-17-17-17-17-17-17-17-|
--------------------------------------------------|
--15-15-15-15-15-15-15-15-15-15-15-15-15-15-15-15-|
--------------------------------------------------|


   S  S  S  S  S  S  S  S  S  S  S  S  S  S  S  S  
--------------------------------------------------|
--------------------------------------------------|
--17-17-17-17-17-17-17-17-17-17-17-17-17-17-17-17-|
--------------------------------------------------|
--15-15-15-15-15-15-15-15-15-15-15-15-15-15-15-15-|
--------------------------------------------------|


   S  S  S  S  S  S  S  S  S  S  S  S  S  S  S  S  
--------------------------------------------------|
--------------------------------------------------|
--17-17-17-17-17-17-17-17-17-17-17-17-17-17-17-17-|
--------------------------------------------------|
--15-15-15-15-15-15-15-15-15-15-15-15-15-15-15-15-|
--------------------------------------------------|


   S  S  S  S  S  S  S  S  S  S  S  S  S  S  S  S  
--------------------------------------------------|
--------------------------------------------------|
--17-17-17-17-17-17-17-17-17-17-17-17-17-17-17-17-|
--------------------------------------------------|
--15-15-15-15-15-15-15-15-15-15-15-15-15-15-15-15-|
--------------------------------------------------|


   S  S  S  S  S  S  S  S  S  S  S  S  S  S  S  S  
--------------------------------------------------|
--------------------------------------------------|
--17-17-17-17-17-17-17-17-17-17-17-17-17-17-17-17-|
--------------------------------------------------|
--15-15-15-15-15-15-15-15-15-15-15-15-15-15-15-15-|
--------------------------------------------------|


   S  S  S  S  S  S  S  S  S  S  S  S  S  S  S  S  
--------------------------------------------------|
--------------------------------------------------|
--17-17-17-17-17-17-17-17-17-17-17-17-17-17-17-17-|
--------------------------------------------------|
--15-15-15-15-15-15-15-15-15-15-15-15-15-15-15-15-|
--------------------------------------------------|


   S  S  S  S  S  S  S  S  S  S  S  S  S  S  S  S  
--------------------------------------------------|
--------------------------------------------------|
--17-17-17-17-17-17-17-17-17-17-17-17-17-17-17-17-|
--------------------------------------------------|
--15-15-15-15-15-15-15-15-15-15-15-15-15-15-15-15-|
--------------------------------------------------|


   S  S  S  S  S  S  S  S  S  S  S  S  S  S  S  S  
--------------------------------------------------|
--------------------------------------------------|
--17-17-17-17-17-17-17-17-17-17-17-17-17-17-17-17-|
--------------------------------------------------|
--15-15-15-15-15-15-15-15-15-15-15-15-15-15-15-15-|
--------------------------------------------------|


                                                      TP                
   S  S  S  S  S  S  S  S  S  S  S  S  S  S  S  S     W                 
--------------------------------------------------|--12----------------|
--------------------------------------------------|--------------------|
--17-17-17-17-17-17-17-17-17-17-17-17-17-17-17-17-|--------------------|
--------------------------------------------------|--------------------|
--15-15-15-15-15-15-15-15-15-15-15-15-15-15-15-15-|--------------------|
--------------------------------------------------|--------------------|


                       TP                                     
  W                    W                   Q    H.            
--L----------------|--12----------------|--L-----------------|
-------------------|--16----------------|--L-----------------|
-------------------|--------------------|--------------------|
-------------------|--------------------|--------------------|
-------------------|--------------------|--------------------|
-------------------|--------------------|--------------------|


            TP    TP                                    TP    TP    
  H         Q     Q       W                   H         Q     Q     
-----------11----12----|-------------------|-----------11----12----|
-----------------------|-------------------|-----------------------|
-----------------------|-------------------|-----------------------|
-----------------------|-------------------|-----------------------|
-----------------------|-------------------|-----------------------|
-----------------------|-------------------|-----------------------|


  S E  S S S S E  S E  S E  S  
------------------------------|
------------------------------|
------------------------------|
------------------------------|
------------------------------|
--3-0--0-L-0-3-0--0-L--3-0--0-|


   S  S  S  S  S  S  S  S  S  S  S  S  S  S  S  S  
--------------------------------------------------|
--------------------------------------------------|
--17-17-17-17-17-17-17-17-17-17-17-17-17-17-17-17-|
--------------------------------------------------|
--15-15-15-15-15-15-15-15-15-15-15-15-15-15-15-15-|
--------------------------------------------------|


   S  S  S  S  S  S  S  S  S  S  S  S  S  S  S  S  
--------------------------------------------------|
--------------------------------------------------|
--17-17-17-17-17-17-17-17-17-17-17-17-17-17-17-17-|
--------------------------------------------------|
--15-15-15-15-15-15-15-15-15-15-15-15-15-15-15-15-|
--------------------------------------------------|


   S  S  S  S  S  S  S  S  S  S  S  S  S  S  S  S  
--------------------------------------------------|
--------------------------------------------------|
--17-17-17-17-17-17-17-17-17-17-17-17-17-17-17-17-|
--------------------------------------------------|
--15-15-15-15-15-15-15-15-15-15-15-15-15-15-15-15-|
--------------------------------------------------|


   S  S  S  S  S  S  S  S  S  S  S  S  S  S  S  S  
--------------------------------------------------|
--------------------------------------------------|
--17-17-17-17-17-17-17-17-17-17-17-17-17-17-17-17-|
--------------------------------------------------|
--15-15-15-15-15-15-15-15-15-15-15-15-15-15-15-15-|
--------------------------------------------------|


   S  S  S  S  S  S  S  S  S  S  S  S  S  S  S  S  
--------------------------------------------------|
--------------------------------------------------|
--17-17-17-17-17-17-17-17-17-17-17-17-17-17-17-17-|
--------------------------------------------------|
--15-15-15-15-15-15-15-15-15-15-15-15-15-15-15-15-|
--------------------------------------------------|


   S  S  S  S  S  S  S  S  S  S  S  S  S  S  S  S  
--------------------------------------------------|
--------------------------------------------------|
--17-17-17-17-17-17-17-17-17-17-17-17-17-17-17-17-|
--------------------------------------------------|
--15-15-15-15-15-15-15-15-15-15-15-15-15-15-15-15-|
--------------------------------------------------|


   S  S  S  S  S  S  S  S  S  S  S  S  S  S  S  S  
--------------------------------------------------|
--------------------------------------------------|
--17-17-17-17-17-17-17-17-17-17-17-17-17-17-17-17-|
--------------------------------------------------|
--15-15-15-15-15-15-15-15-15-15-15-15-15-15-15-15-|
--------------------------------------------------|


   S  S  S  S  S  S  S  S  S  S  S  S  S  S  S  S  
--------------------------------------------------|
--------------------------------------------------|
--17-17-17-17-17-17-17-17-17-17-17-17-17-17-17-17-|
--------------------------------------------------|
--15-15-15-15-15-15-15-15-15-15-15-15-15-15-15-15-|
--------------------------------------------------|


   S  S  S  S  S  S  S  S  S  S  S  S  S  S  S  S  
--------------------------------------------------|
--------------------------------------------------|
--17-17-17-17-17-17-17-17-17-17-17-17-17-17-17-17-|
--------------------------------------------------|
--15-15-15-15-15-15-15-15-15-15-15-15-15-15-15-15-|
--------------------------------------------------|


   S  S  S  S  S  S  S  S  S  S  S  S  S  S  S  S  
--------------------------------------------------|
--------------------------------------------------|
--17-17-17-17-17-17-17-17-17-17-17-17-17-17-17-17-|
--------------------------------------------------|
--15-15-15-15-15-15-15-15-15-15-15-15-15-15-15-15-|
--------------------------------------------------|


   S  S  S  S  S  S  S  S  S  S  S  S  S  S  S  S  
--------------------------------------------------|
--------------------------------------------------|
--17-17-17-17-17-17-17-17-17-17-17-17-17-17-17-17-|
--------------------------------------------------|
--15-15-15-15-15-15-15-15-15-15-15-15-15-15-15-15-|
--------------------------------------------------|


   S  S  S  S  S  S  S  S  S  S  S  S  S  S  S  S  
--------------------------------------------------|
--------------------------------------------------|
--17-17-17-17-17-17-17-17-17-17-17-17-17-17-17-17-|
--------------------------------------------------|
--15-15-15-15-15-15-15-15-15-15-15-15-15-15-15-15-|
--------------------------------------------------|


   S  S  S  S  S  S  S  S  S  S  S  S  S  S  S  S  
--------------------------------------------------|
--------------------------------------------------|
--17-17-17-17-17-17-17-17-17-17-17-17-17-17-17-17-|
--------------------------------------------------|
--15-15-15-15-15-15-15-15-15-15-15-15-15-15-15-15-|
--------------------------------------------------|


   S  S  S  S  S  S  S  S  S  S  S  S  S  S  S  S  
--------------------------------------------------|
--------------------------------------------------|
--17-17-17-17-17-17-17-17-17-17-17-17-17-17-17-17-|
--------------------------------------------------|
--15-15-15-15-15-15-15-15-15-15-15-15-15-15-15-15-|
--------------------------------------------------|


   S  S  S  S  S  S  S  S  S  S  S  S  S  S  S  S  
--------------------------------------------------|
--------------------------------------------------|
--17-17-17-17-17-17-17-17-17-17-17-17-17-17-17-17-|
--------------------------------------------------|
--15-15-15-15-15-15-15-15-15-15-15-15-15-15-15-15-|
--------------------------------------------------|


   S  S  S  S  S  S  S  S  S  S  S  S  S  S  S  S  
--------------------------------------------------|
--------------------------------------------------|
--17-17-17-17-17-17-17-17-17-17-17-17-17-17-17-17-|
--------------------------------------------------|
--15-15-15-15-15-15-15-15-15-15-15-15-15-15-15-15-|
--------------------------------------------------|


  S S S S S S S E  S S S S S S S    S S S S S S S E  S S S S S S S  
---------------------------------|---------------------------------|
---------------------------------|---------------------------------|
---------------------------------|---------------------------------|
---------------------------------|---------------------------------|
--0-0-0-0-x-x-0----0---x-0-0---x-|--0-0-0-0-x-x-0----0---x-0-0---x-|
--0-0-0-0-x-x-0----0---x-0-0---x-|--0-0-0-0-x-x-0----0---x-0-0---x-|


  S S S S S S S E  S S S S S S S    S S S S S S S E  S S S S E.    
---------------------------------|--------------------------------|
---------------------------------|--------------------------------|
---------------------------------|--------------------------------|
---------------------------------|--------------------------------|
--0-0-0-0-x-x-0----0---x-0-0---x-|--0-0-0-0-x-x-0----0---x-0-0\---|
--0-0-0-0-x-x-0----0---x-0-0---x-|--0-0-0-0-x-x-0----0---x-0-0\---|


            TP    TP                TP    TP                TP    TP    
  H         Q     Q       H         Q     Q       H         Q     Q     
-----------11----12----|-----------11----12----|-----------11----12----|
-----------------------|-----------------------|-----------------------|
-----------------------|-----------------------|-----------------------|
-----------------------|-----------------------|-----------------------|
-----------------------|-----------------------|-----------------------|
-----------------------|-----------------------|-----------------------|


            TP    TP     
  H         Q     Q      
-----------11----12----||
-----------11----12----||
-----------------------||
-----------------------||
-----------------------||
-----------------------||

***************************************
***************************************
***************************************

John Connolly


      W                   W                   W                 
C ||-------------------|-------------------|-------------------|
G ||-------------------|-------------------|-------------------|
D#||-------------------|-------------------|-------------------|
A#||-------------------|-------------------|-------------------|
F ||-------------------|-------------------|-------------------|
A#||-------------------|-------------------|-------------------|


  W                   S S S S S S S E  S S S S S S S  
-------------------|---------------------------------|
-------------------|---------------------------------|
-------------------|---------------------------------|
-------------------|---------------------------------|
-------------------|--0-0-0-0-x-x-0----0---x-0-0---x-|
-------------------|--0-0-0-0-x-x-0----0---x-0-0---x-|


  S S S S S S E  S S S S  S  S  S  S    S S S S S S S E  S S S S S S S  
-------------------------------------|---------------------------------|
-------------------------------------|---------------------------------|
-------------------------------------|---------------------------------|
-------------------------------------|---------------------------------|
--0-0-0-0-x-x-0--3-3-3-3-10-10-10-10-|--0-0-0-0-x-x-0----0---x-0-0---x-|
--0-0-0-0-x-x-0--3-3-3-3-10-10-10-10-|--0-0-0-0-x-x-0----0---x-0-0---x-|


  S S S S S S E  S S S S S S S S    S S S S S S S E  S S S S S S S  
---------------------------------|---------------------------------|
---------------------------------|---------------------------------|
---------------------------------|---------------------------------|
---------------------------------|---------------------------------|
--0-0-0-0-x-x-0--3-3-3-3-7-7-7-7-|----------x-x----------x-------x-|
--0-0-0-0-x-x-0--3-3-3-3-7-7-7-7-|--0-0-0-0-x-x-0----0---x-0-0---x-|


  S S S S S S S E  S S S S S S S    S S S S S S S E  S S S S S S S  
---------------------------------|---------------------------------|
---------------------------------|---------------------------------|
---------------------------------|---------------------------------|
---------------------------------|---------------------------------|
----------x-x----------x-------x-|----------x-x----------x-------x-|
--0-0-0-0-x-x-0----0---x-0-0---x-|--0-0-0-0-x-x-0----0---x-0-0---x-|


  S S S S S S S E  S S S S S S S    S S S S S S S S S S S S S S S S  
---------------------------------|----------------------------------|
---------------------------------|----------------------------------|
---------------------------------|----------------------------------|
---------------------------------|--5-5-5-5-5-5-5-5-5-5-5-5-5-5-5-5-|
----------x-x----------x-------x-|--3-3-3-3-3-3-3-3-3-3-3-3-3-3-3-3-|
--0-0-0-0-x-x-0----0---x-0-0---x-|----------------------------------|


  S S S S S S S S S S S S S S S S    S S S S S S S S S S S S S S S S  
----------------------------------|----------------------------------|
----------------------------------|----------------------------------|
----------------------------------|----------------------------------|
--5-5-5-5-5-5-5-5-2-2-2-2-2-2-2-2-|----------------------------------|
--3-3-3-3-3-3-3-3-0-0-0-0-0-0-0-0-|--0-0-0-0-0-0-0-0-0-0-0-0-0-0-0-0-|
----------------------------------|--0-0-0-0-0-0-0-0-0-0-0-0-0-0-0-0-|


  S S S S S S S S S S S S S S S S    S S S S S S S S S S S S S S S S  
----------------------------------|----------------------------------|
----------------------------------|----------------------------------|
----------------------------------|----------------------------------|
----------------------------------|--5-5-5-5-5-5-5-5-5-5-5-5-5-5-5-5-|
--0-0-0-0-0-0-0-0-3-3-3-3-3-3-3-3-|--3-3-3-3-3-3-3-3-3-3-3-3-3-3-3-3-|
--0-0-0-0-0-0-0-0-3-3-3-3-3-3-3-3-|----------------------------------|


  S S S S S S S S S S S S S S S S    S S S S S S S S S S S S S S S S  
----------------------------------|----------------------------------|
----------------------------------|----------------------------------|
----------------------------------|----------------------------------|
--5-5-5-5-5-5-5-5-2-2-2-2-2-2-2-2-|--3-3-3-3-3-3-3-3-3-3-3-3-3-3-3-3-|
--3-3-3-3-3-3-3-3-0-0-0-0-0-0-0-0-|--1-1-1-1-1-1-1-1-1-1-1-1-1-1-1-1-|
----------------------------------|----------------------------------|


  S S S S S S S S S S S S S S S S    S S S S S S S E  S S S S S S S  
----------------------------------|---------------------------------|
----------------------------------|---------------------------------|
----------------------------------|---------------------------------|
--3-3-3-3-3-3-3-3-3-3-3-3-3-3-3-3-|---------------------------------|
--1-1-1-1-1-1-1-1-3-3-3-3-3-3-3-3-|--0-0-0-0-x-x-0----0---x-0-0---x-|
------------------3-3-3-3-3-3-3-3-|--0-0-0-0-x-x-0----0---x-0-0---x-|


  S S S S S S S E  S S S S S S S    S S S S S S S E  S S S S S S S  
---------------------------------|---------------------------------|
---------------------------------|---------------------------------|
---------------------------------|---------------------------------|
---------------------------------|---------------------------------|
--0-0-0-0-x-x-0----0---x-0-0---x-|--0-0-0-0-x-x-0----0---x-0-0---x-|
--0-0-0-0-x-x-0----0---x-0-0---x-|--0-0-0-0-x-x-0----0---x-0-0---x-|


  S S S S S S S S H           S S S S S S S E  S S S S S S S  
---------------------------|---------------------------------|
---------------------------|---------------------------------|
---------------------------|---------------------------------|
---------------------------|---------------------------------|
--0-0-0-0-x-x-0-0----------|--0-0-0-0-x-x-0----0---x-0-0---x-|
--0-0-0-0-x-x-0-0----------|--0-0-0-0-x-x-0----0---x-0-0---x-|


  S S S S S S E  S S S S  S  S  S  S    S S S S S S S E  S S S S S S S  
-------------------------------------|---------------------------------|
-------------------------------------|---------------------------------|
-------------------------------------|---------------------------------|
-------------------------------------|---------------------------------|
--0-0-0-0-x-x-0--3-3-3-3-10-10-10-10-|--0-0-0-0-x-x-0----0---x-0-0---x-|
--0-0-0-0-x-x-0--3-3-3-3-10-10-10-10-|--0-0-0-0-x-x-0----0---x-0-0---x-|


  S S S S S S E  S S S S S S S S    S S S S S S S E  S S S S S S S  
---------------------------------|---------------------------------|
---------------------------------|---------------------------------|
---------------------------------|---------------------------------|
---------------------------------|---------------------------------|
--0-0-0-0-x-x-0--3-3-3-3-7-7-7-7-|--0-0-0-0-x-x-0----0---x-0-0---x-|
--0-0-0-0-x-x-0--3-3-3-3-7-7-7-7-|--0-0-0-0-x-x-0----0---x-0-0---x-|


  S S S S S S E  S S S S  S  S  S  S    S S S S S S S E  S S S S S S S  
-------------------------------------|---------------------------------|
-------------------------------------|---------------------------------|
-------------------------------------|---------------------------------|
-------------------------------------|---------------------------------|
--0-0-0-0-x-x-0--3-3-3-3-10-10-10-10-|--0-0-0-0-x-x-0----0---x-0-0---x-|
--0-0-0-0-x-x-0--3-3-3-3-10-10-10-10-|--0-0-0-0-x-x-0----0---x-0-0---x-|


  S S S S S S E  S S S S S S S S    S S S S S S S S S S S S S S S S  
---------------------------------|----------------------------------|
---------------------------------|----------------------------------|
---------------------------------|----------------------------------|
---------------------------------|--5-5-5-5-5-5-5-5-5-5-5-5-5-5-5-5-|
--0-0-0-0-x-x-0--3-3-3-3-7-7-7-7-|--3-3-3-3-3-3-3-3-3-3-3-3-3-3-3-3-|
--0-0-0-0-x-x-0--3-3-3-3-7-7-7-7-|----------------------------------|


  S S S S S S S S S S S S S S S S    S S S S S S S S S S S S S S S S  
----------------------------------|----------------------------------|
----------------------------------|----------------------------------|
----------------------------------|----------------------------------|
--5-5-5-5-5-5-5-5-2-2-2-2-2-2-2-2-|----------------------------------|
--3-3-3-3-3-3-3-3-0-0-0-0-0-0-0-0-|--0-0-0-0-0-0-0-0-0-0-0-0-0-0-0-0-|
----------------------------------|--0-0-0-0-0-0-0-0-0-0-0-0-0-0-0-0-|


  S S S S S S S S S S S S S S S S    S S S S S S S S S S S S S S S S  
----------------------------------|----------------------------------|
----------------------------------|----------------------------------|
----------------------------------|----------------------------------|
----------------------------------|--5-5-5-5-5-5-5-5-5-5-5-5-5-5-5-5-|
--0-0-0-0-0-0-0-0-3-3-3-3-3-3-3-3-|--3-3-3-3-3-3-3-3-3-3-3-3-3-3-3-3-|
--0-0-0-0-0-0-0-0-3-3-3-3-3-3-3-3-|----------------------------------|


  S S S S S S S S S S S S S S S S    S S S S S S S S S S S S S S S S  
----------------------------------|----------------------------------|
----------------------------------|----------------------------------|
----------------------------------|----------------------------------|
--5-5-5-5-5-5-5-5-2-2-2-2-2-2-2-2-|--3-3-3-3-3-3-3-3-3-3-3-3-3-3-3-3-|
--3-3-3-3-3-3-3-3-0-0-0-0-0-0-0-0-|--1-1-1-1-1-1-1-1-1-1-1-1-1-1-1-1-|
----------------------------------|----------------------------------|


  S S S S S S S S S S S S S S S S    S S S S S S S S S S S S S S S S  
----------------------------------|----------------------------------|
----------------------------------|----------------------------------|
----------------------------------|----------------------------------|
--3-3-3-3-3-3-3-3-3-3-3-3-3-3-3-3-|--5-5-5-5-5-5-5-5-5-5-5-5-5-5-5-5-|
--1-1-1-1-1-1-1-1-3-3-3-3-3-3-3-3-|--3-3-3-3-3-3-3-3-3-3-3-3-3-3-3-3-|
------------------3-3-3-3-3-3-3-3-|----------------------------------|


  S S S S S S S S S S S S S S S S    S S S S S S S S S S S S S S S S  
----------------------------------|----------------------------------|
----------------------------------|----------------------------------|
----------------------------------|----------------------------------|
--5-5-5-5-5-5-5-5-2-2-2-2-2-2-2-2-|----------------------------------|
--3-3-3-3-3-3-3-3-0-0-0-0-0-0-0-0-|--0-0-0-0-0-0-0-0-0-0-0-0-0-0-0-0-|
----------------------------------|--0-0-0-0-0-0-0-0-0-0-0-0-0-0-0-0-|


  S S S S S S S S S S S S S S S S    S S S S S S S S S S S S S S S S  
----------------------------------|----------------------------------|
----------------------------------|----------------------------------|
----------------------------------|----------------------------------|
----------------------------------|--5-5-5-5-5-5-5-5-5-5-5-5-5-5-5-5-|
--0-0-0-0-0-0-0-0-3-3-3-3-3-3-3-3-|--3-3-3-3-3-3-3-3-3-3-3-3-3-3-3-3-|
--0-0-0-0-0-0-0-0-3-3-3-3-3-3-3-3-|----------------------------------|


  S S S S S S S S S S S S S S S S    S S S S S S S S S S S S S S S S  
----------------------------------|----------------------------------|
----------------------------------|----------------------------------|
----------------------------------|----------------------------------|
--5-5-5-5-5-5-5-5-2-2-2-2-2-2-2-2-|--3-3-3-3-3-3-3-3-3-3-3-3-3-3-3-3-|
--3-3-3-3-3-3-3-3-0-0-0-0-0-0-0-0-|--1-1-1-1-1-1-1-1-1-1-1-1-1-1-1-1-|
----------------------------------|----------------------------------|


  S S S S S S S S S S S S S S S S    S E  S S S S S S E  S S S S S  
----------------------------------|--------------------------------|
----------------------------------|--------------------------------|
----------------------------------|--------------------------------|
--3-3-3-3-3-3-3-3-3-3-3-3-3-3-3-3-|--------------------------------|
--1-1-1-1-1-1-1-1-3-3-3-3-3-3-3-3-|--------------------------------|
------------------3-3-3-3-3-3-3-3-|--0----0---0-0-0-0----0---0-0-0-|


  S S S S S S S S S E  S S S S S    S E  S S S S S S E  S S S S S  
---------------------------------|--------------------------------|
---------------------------------|--------------------------------|
---------------------------------|--------------------------------|
---------------------------------|--------------------------------|
---------------------------------|--------------------------------|
--0-0-0-0---0-0-0-0----0---0-0-0-|--0----0---0-0-0-0----0---0-0-0-|


  S S S S S S S S S E.  Q       S E    E  S S S S E  S S S S S  
-----------------------------|---------------------------------|
-----------------------------|---------------------------------|
-----------------------------|---------------------------------|
-----------------------------|---------------------------------|
-----------------------------|---------------------------------|
--0-0-0-0---0-0-0-0----------|--0----<>3--0-0-0-0----0---0-0-0-|


  S S S   E  S S S S E  S S S S S    S E    E  S S S S E  S S S S S  
----------------------------------|---------------------------------|
----------------------------------|---------------------------------|
----------------------------------|---------------------------------|
----------------------------------|---------------------------------|
----------------------------------|---------------------------------|
--0-0-0-<>3--0-0-0-0----0---0-0-0-|--0----<>3--0-0-0-0----0---0-0-0-|


  S E  S S S S E  S E  S E  S    S S S S S S S S S S S S S S S S  
------------------------------|----------------------------------|
------------------------------|----------------------------------|
------------------------------|----------------------------------|
------------------------------|--5-5-5-5-5-5-5-5-5-5-5-5-5-5-5-5-|
------------------------------|--3-3-3-3-3-3-3-3-3-3-3-3-3-3-3-3-|
--3-0--0-L-0-3-0--0-L--3-0--0-|----------------------------------|


  S S S S S S S S S S S S S S S S    S S S S S S S S S S S S S S S S  
----------------------------------|----------------------------------|
----------------------------------|----------------------------------|
----------------------------------|----------------------------------|
--5-5-5-5-5-5-5-5-2-2-2-2-2-2-2-2-|----------------------------------|
--3-3-3-3-3-3-3-3-0-0-0-0-0-0-0-0-|--0-0-0-0-0-0-0-0-0-0-0-0-0-0-0-0-|
----------------------------------|--0-0-0-0-0-0-0-0-0-0-0-0-0-0-0-0-|


  S S S S S S S S S S S S S S S S    S S S S S S S S S S S S S S S S  
----------------------------------|----------------------------------|
----------------------------------|----------------------------------|
----------------------------------|----------------------------------|
----------------------------------|--5-5-5-5-5-5-5-5-5-5-5-5-5-5-5-5-|
--0-0-0-0-0-0-0-0-3-3-3-3-3-3-3-3-|--3-3-3-3-3-3-3-3-3-3-3-3-3-3-3-3-|
--0-0-0-0-0-0-0-0-3-3-3-3-3-3-3-3-|----------------------------------|


  S S S S S S S S S S S S S S S S    S S S S S S S S S S S S S S S S  
----------------------------------|----------------------------------|
----------------------------------|----------------------------------|
----------------------------------|----------------------------------|
--5-5-5-5-5-5-5-5-2-2-2-2-2-2-2-2-|--3-3-3-3-3-3-3-3-3-3-3-3-3-3-3-3-|
--3-3-3-3-3-3-3-3-0-0-0-0-0-0-0-0-|--1-1-1-1-1-1-1-1-1-1-1-1-1-1-1-1-|
----------------------------------|----------------------------------|


  S S S S S S S S S S S S S S S S    S S S S S S S S S S S S S S S S  
----------------------------------|----------------------------------|
----------------------------------|----------------------------------|
----------------------------------|----------------------------------|
--3-3-3-3-3-3-3-3-3-3-3-3-3-3-3-3-|--5-5-5-5-5-5-5-5-5-5-5-5-5-5-5-5-|
--1-1-1-1-1-1-1-1-3-3-3-3-3-3-3-3-|--3-3-3-3-3-3-3-3-3-3-3-3-3-3-3-3-|
------------------3-3-3-3-3-3-3-3-|----------------------------------|


  S S S S S S S S S S S S S S S S    S S S S S S S S S S S S S S S S  
----------------------------------|----------------------------------|
----------------------------------|----------------------------------|
----------------------------------|----------------------------------|
--5-5-5-5-5-5-5-5-2-2-2-2-2-2-2-2-|----------------------------------|
--3-3-3-3-3-3-3-3-0-0-0-0-0-0-0-0-|--0-0-0-0-0-0-0-0-0-0-0-0-0-0-0-0-|
----------------------------------|--0-0-0-0-0-0-0-0-0-0-0-0-0-0-0-0-|


  S S S S S S S S S S S S S S S S    S S S S S S S S S S S S S S S S  
----------------------------------|----------------------------------|
----------------------------------|----------------------------------|
----------------------------------|----------------------------------|
----------------------------------|--5-5-5-5-5-5-5-5-5-5-5-5-5-5-5-5-|
--0-0-0-0-0-0-0-0-3-3-3-3-3-3-3-3-|--3-3-3-3-3-3-3-3-3-3-3-3-3-3-3-3-|
--0-0-0-0-0-0-0-0-3-3-3-3-3-3-3-3-|----------------------------------|


  S S S S S S S S S S S S S S S S    S S S S S S S S S S S S S S S S  
----------------------------------|----------------------------------|
----------------------------------|----------------------------------|
----------------------------------|----------------------------------|
--5-5-5-5-5-5-5-5-2-2-2-2-2-2-2-2-|--3-3-3-3-3-3-3-3-3-3-3-3-3-3-3-3-|
--3-3-3-3-3-3-3-3-0-0-0-0-0-0-0-0-|--1-1-1-1-1-1-1-1-1-1-1-1-1-1-1-1-|
----------------------------------|----------------------------------|


  S S S S S S S S S S S S S S S S    S S S S S S S E  S S S S S S S  
----------------------------------|---------------------------------|
----------------------------------|---------------------------------|
----------------------------------|---------------------------------|
--3-3-3-3-3-3-3-3-3-3-3-3-3-3-3-3-|---------------------------------|
--1-1-1-1-1-1-1-1-3-3-3-3-3-3-3-3-|--0-0-0-0-x-x-0----0---x-0-0---x-|
------------------3-3-3-3-3-3-3-3-|--0-0-0-0-x-x-0----0---x-0-0---x-|


  S S S S S S S E  S S S S S S S    S S S S S S S E  S S S S S S S  
---------------------------------|---------------------------------|
---------------------------------|---------------------------------|
---------------------------------|---------------------------------|
---------------------------------|---------------------------------|
--0-0-0-0-x-x-0----0---x-0-0---x-|--0-0-0-0-x-x-0----0---x-0-0---x-|
--0-0-0-0-x-x-0----0---x-0-0---x-|--0-0-0-0-x-x-0----0---x-0-0---x-|


  S S S S S S S E  S S S S E.      S S S   E  S S S S E  S S S S S  
--------------------------------|----------------------------------|
--------------------------------|----------------------------------|
--------------------------------|----------------------------------|
--------------------------------|----------------------------------|
--0-0-0-0-x-x-0----0---x-0-0\---|----------------------------------|
--0-0-0-0-x-x-0----0---x-0-0\---|--0-0-0-<>3--0-0-0-0----0---0-0-0-|


  S S S   E  S S S S E  S S S S S    S S S   E  S S S S E  S S S S S  
----------------------------------|----------------------------------|
----------------------------------|----------------------------------|
----------------------------------|----------------------------------|
----------------------------------|----------------------------------|
----------------------------------|----------------------------------|
--0-0-0-<>3--0-0-0-0----0---0-0-0-|--0-0-0-<>3--0-0-0-0----0---0-0-0-|


  S S S   E  S S S S E  S S S S S   
----------------------------------||
----------------------------------||
----------------------------------||
----------------------------------||
----------------------------------||
--0-0-0-<>3--0-0-0-0----0---0-0-0-||







Duration Legend
---------------
W - whole
H - half
Q - quarter
E - 8th
S - 16th
T - 32nd
X - 64th
. - note dotted
|-n-|  - n-tuplets


Tablature Legend
----------------
L - tied note
x - dead note
g - grace note
(n) - ghost note
> - accentuded note
NH - natural harmonic
AH - artificial harmonic
TH - tapped harmonic
SH - semi harmonic
PH - pitch harmonic
h - hammer on
p - pull off
b - bend
br - bendRelease
pb - preBend
pbr - preBendRelease
brb - bendReleaseBend
\n/ - tremolo bar dip
\n - tremolo bar dive
-/n - tremolo bar Release up
/n\ - tremolo bar inverted dip
/n - tremolo bar return
-\n - tremolo bar Release down
S - shift slide
s - legato slide
/ -  slide into from below or out of upwards
\ -  slide into from above or out of downwards
~ - vibrato
W - wide vibrato
tr - trill
TP - tremolo picking
T - tapping
S - slap
P - pop
< - fade in
^ - brush up
v - brush down


Tap to rate this tab
 
# A B C D E F G H I J K L M N O P Q R S T U V W X Y Z