Song name
# A B C D E F G H I J K L M N O P Q R S T U V W X Y Z

Seventh Day Slumber - Nothing But The Blood tab

h= hammer on

The intro and the verses are played the same

intro & verses:
e|--------------------------------------------------------------------------|
B|------0-------0-----------0-------0---------------------------------------|
G|--4-------3---------------------------4h6---------------------------------|
D|----4---4---4---4-4---4h6---2-2-2---4-------------------------------------|
A|--------------------------------------------------------------------------|
D|--------------------------------------------------------------------------|

chorus: What can wash away our sins
e|--------------------------------------------------------------------------|
B|--------------------------------------------------------------------------|
G|--------------------------------------------------------------------------|
D|--9--9-9-9-9--9-9-9-9--9--9-9-9-9--9-9-8h9-9------------------------------|
A|--9--9-9-9-9--9-9-9-9--9--9-9-9-9--9-9-8h9-9------------------------------|
D|--9--9-9-9-9--9-9-9-9--9--9-9-9-9--9-9-8h9-9------------------------------|

what can make us whole again
e|--------------------------------------------------------------------------|
B|--------------------------------------------------------------------------|
G|--------------------------------------------------------------------------|
D|--6--6-6-6-6--6-6-6-6--6--6-6-6-6--6-6-6-6--------------------------------|
A|--6--6-6-6-6--6-6-6-6--6--6-6-6-6--6-6-6-6--------------------------------|
D|--6--6-6-6-6--6-6-6-6--6--6-6-6-6--6-6-6-6--------------------------------|

nothing but the blood, nothing but the blood of Jesus
e|--------------------------------------------------------------------------|
B|--------------------------------------------------------------------------|
G|--------------------------------------------------------------------------|
D|--4-4-4-4-4-4-4-4-2-2-2-2-2-2-2-2-9--9-9-9-9--9-9-9-9-9-6-6-6-6-2-2-2-2---|
A|--4-4-4-4-4-4-4-4-2-2-2-2-2-2-2-2-9--9-9-9-9--9-9-9-9-9-6-6-6-6-2-2-2-2---|
E|--4-4-4-4-4-4-4-4-2-2-2-2-2-2-2-2-9--9-9-9-9--9-9-9-9-9-6-6-6-6-2-2-2-2---|

second part of the chorus is the same

Bridge:We thank you for the blood
e|--------------------------------------------------------------------------|
B|--------------------------------------------------------------------------|
G|--------------------------------------------------------------------------|
D|--6-6-6-6-6-6-6-6-2-2-2-2-2-2-2-2-9-9-9-9-9-9-9-9-4-4-4-4-4-4-4-4---------|
A|--6-6-6-6-6-6-6-6-2-2-2-2-2-2-2-2-9-9-9-9-9-9-9-9-4-4-4-4-4-4-4-4---------|
D|--6-6-6-6-6-6-6-6-2-2-2-2-2-2-2-2-9-9-9-9-9-9-9-9-4-4-4-4-4-4-4-4---------|

Tap to rate this tab
# A B C D E F G H I J K L M N O P Q R S T U V W X Y Z