Song name
# A B C D E F G H I J K L M N O P Q R S T U V W X Y Z

Sex Machineguns - Zero tab

Okay, so heres the intro to Zero, the sweetest riff in all time. Not so hard to play. 
anyway, Give it a Go

E]------------------------------------------------------------|
B]------------------------------------------------------------|
D]------------------------------------------------------------|
G]------------------------------5---4---5---7---5---4---------|
A]---10--9--10--12--10--9-)--55---5---5---5---5---5---5-)-----|
E]-00--0--0---0---0---0---)-----------------------------)-----|
   **  *  *   *   *   *  2x  **   *   *   *   *   *   * 2x

E]------------------------------------------------------------|
B]------------------------------------------------------------|
D]------------------------------------------------------------|
G]----5---4---5---7---5---4-------------------------------9-7-|
A]-33---3---3---3---3---3---)----10--9--10--12--10--9-)---7-5-|
E]--------------------------)--00--0--0---0---0---0---)-------|
   **   *   *   *   *   *  2x  **  *  *   *   *   *  2x

* = P.m
Tap to rate this tab
# A B C D E F G H I J K L M N O P Q R S T U V W X Y Z