Song name
# A B C D E F G H I J K L M N O P Q R S T U V W X Y Z

Sex Pistols - Streets Of London tab

-------------------------------------------------------------------------------
			 Streets of London - Sex Pistols
-------------------------------------------------------------------------------

Tabbed By : Justas M.
e-mail: dvyratiz@graffiti.net

Tuning:

Intro
e|------------------------------------------------------------------------------|
B|------------------------------------------------------------------------------|
G|9--7-6-7-9---4-6-7--6-7-9---9--7-6-7-9--4--9--6-------------------------------|
D|9--7-6-7-9---4-6-7--6-7-9---9--7-6-7-9--4--9--6-7-----------------------------|
A|7--5-4-5-7---2-4-5--4-5-7---7--5-4-5-7--2--7--4-7-----------------------------|
E|------------------------------------------------5-----------------------------|

Verse
e|------------------------------------------------------------------------------|
B|------------------------------------------------------------------------------|
G|---9-----6--------------------9-----6-----------------------------------------|
D|7--9--7--6--4--7--9-11-9---7--9--7--6--4--7-2-4-7-----------------------------|
A|7--7--7--4--4--7--9-11-9---7--7--7--4--4--7-2-4-7-----------------------------|
E|5-----5-----2--5--7-9--7---5-----5-----2--5-0-2-5-----------------------------|
                                

Chorus
e|------------------------------------------------------------------------------|
B|------------------------------------------------------------------------------|
G|7--6--9--6------9-------------------------------------------------------------|
D|7--6--9--6--9---9-------------------------------------------------------------|
A|5--4--7--4--9---7-------------------------------------------------------------|
E|------------7-----------------------------------------------------------------|

Pre-solo = chorus(no vocal)

Solo
Just play verse and chorus with d and g string

Outro
e|------------------------------------------------------------------------------|
B|------------------------------------------------------------------------------|
G|7--6--9--6------9-------------------------------------------------------------|
D|7--6--9--6--9---9---7---------------------------------------------------------|
A|5--4--7--4--9---7---7---------------------------------------------------------|
E|------------7-------5---------------------------------------------------------|

Song structure:
Intro
verse
Chorus
Verse
Chorus
Verse
Pre-solo
Solo
Verse
Outro
Tap to rate this tab
# A B C D E F G H I J K L M N O P Q R S T U V W X Y Z