Song name
# A B C D E F G H I J K L M N O P Q R S T U V W X Y Z

Sex Pistols - Something Else tab

Sex Pistols, Something Else
Originally by Eddie Cochran


Intro

e|-----------------------------------------------------------|
B|-----------------------------------------------------------|
G|-----------------------------------------------------------|
D|-------7777777777-----------------------  X2  -------------|
A|-0-2-3-5555555555------------------------------------------|
E|-----------------------------------------------------------|
PM.................
You can palm mute the intro if you want, it
sounds fine either way but I usually play it
palm muted.

e|-----------------------------------------------------------|
B|-----------------------------------------------------------|
G|-----------------------------------------------------------|
D|------77--77-----------------------------------------------|
A|-7777-55--55-----------------------------------------------|
E|-5555------------------------------------------------------|

e|-----------------------------------------------------------|
B|-----------------------------------------------------------|
G|-----------------------------------------------------------|
D|-------7777777777-----------------------  X2  -------------|
A|-0-2-3-5555555555------------------------------------------|
E|-----------------------------------------------------------|

e|-----------------------------------------------------------|
B|-----------------------------------------------------------|
G|-----------------------------------------------------------|
D|------------------------------------------------------7--7-|
A|-7777777777777777-5555555555555555-77777777-55555555--5--5-|
E|-5555555555555555-3333333333333333-55555555-33333333-------|

These are the parts to play the song, it's fairly
straightfoward and you shouldn't have much trouble putting it
together to make this radical song.
Tap to rate this tab
# A B C D E F G H I J K L M N O P Q R S T U V W X Y Z