Song name
# A B C D E F G H I J K L M N O P Q R S T U V W X Y Z

Sex Pistols - Problems tab

Intro  (Main riff)              

||------------------------------|
||------------------------------|
||*----------------------------*|
||*--7--7--7--5-5-5--7-7-7-7-7-*| 12 times.
||---5--5--5--5-5-5--5-0-5-0-5--|
||------------------------------|

||-------------------------------|
||-------------------------------|
||-------------------------------|
||-------------------------------|
||----5-5-5-5-5-5-5-5-5----------|
||----7-7-7-7-7-7-7-7-7----------| Chorus. Heres where he sings Problems.....

||-------------------------------|
||-------------------------------|
||-------------------------------|
||-------------------------------|
||----9-9-9-9-9-9-9-9-9----------|
||----7-7-7-7-7-7-7-7-7----------| Problems......


|-------------------------------|
|-------------------------------|
|-------------------------------|
|-------------------------------|
|-10-10-10-10-10-10-10-10-10----|
|-8--8--8--8--8--8--8--8--8-----| Problems.. The problem is you..

The back to main riff.

Repeat this 2 times.

After second chorus play main riff sometimes.

Then solo comes in.

Solo (Play over main riff)                     16x
|--5------5--5-----5--5-----||---5--5------5--5-------||--5------5--------|
|--5------5--5-----5--5-----||---5--5------5--5-------||--5------5-----5--|
|-----7b--------7b-------7--||*--------7b--------7b--*||-----7b-----7--5--|
|---------------------------||*----------------------*||------------------|
|---------------------------||------------------------||------------------|
|---------------------------||------------------------||------------------|

|-----------------------------|
|--(5)b-----5--5--(5)b--5--5--|
|--(5)b-----5--5--(5)b--5--5--|
|--------7--------------------|
|-----------------------------|
|-----------------------------|





Tap to rate this tab
# A B C D E F G H I J K L M N O P Q R S T U V W X Y Z