Song name
# A B C D E F G H I J K L M N O P Q R S T U V W X Y Z

Sex Pistols - No One Is Innocent tab

-----------------------------------------------------------------------------
                 No one is Innocent - Sex Pistols
-----------------------------------------------------------------------------

Tabbed by: sugarpunk33
Album: The Great Rock'n'Roll Swindle,1979
Tuning: Standard

vocals: Ronnie Biggs
Guitar: Steve Jones
Drums : Paul Cook

Intro
E|----------------------------------------------------|
B|----------------------------------------------------|
G|-----8-8-----------3-3-3-3-3-3-3-3------------------|
D|-3-3-8-8-10-10-8-8-3-3-3-3-3-3-3-3-3-3-3-3--3-3-3-3-|
A|-3-3-6-6-10-10-8-8-1-1-1-1-1-1-1-1-3-3-3-3--3-3-3-3-|
E|-1-1-----8--8--6-6-----------------0-1-1-1--0-1-1-1-|X2

verse
E|-----------------------------|
B|-----------------------------|
G|-----------------------------|
D|-3-3-3-3-3-3-3-3-3-3-3-3-3-3-|
A|-0-1-1-1-1-1-1-1-0-1-1-0-1-1-|    
E|-----------------------------|X3
     ....P.M....   ...   ...

E|-------------------------|
B|-------------------------|
G|-------------------------|
D|-3-3-3-3-3-3-3-3-3-3-3-3-|
A|-3-3-3-3-3-3-3-3-3-3-3-3-|
E|-1-1-1-1-1-0-1-1-1-1-1-1-|

Chorus
E|---------------------|
B|---------------------|
G|-8-8-8-8-------------|
D|-8-8-8-8-8-8-8-8-8-8-|
A|-6-6-6-6-8-8-8-8-8-8-|
E|---------6-6-6-6-6-6-|X3

E|---------------------|
B|---------------------|
G|---------------------|
D|-3-3-3-3-3-3-3-3-3-3-|
A|-3-3-3-3-3-3-3-3-3-3-|
E|-1-1-1-1-1-1-1-1-1-1-|

solo
E|---6-6---6-6---6-6---------------------------------|
B|---6-6---6-6---6-6-9-8-6---------6--6----6--6--6---|
G|-8b----8b----8b----------9-8-6---6--6----6--6--6---|
D|-------------------------------8b----8b---8b----8b-|
A|---------------------------------------------------|
E|---------------------------------------------------|

E|-----6-6---6-6----------|
B|-6---6-6---6-6----------|
G|-6-------------8-6------|
D|---8b----8b--------8----|
A|---------------------8~-|
E|------------------------|

Intro
Verse  x2
Chorus
Verse  x2
Chorus
Solo
Chorus
Verse  x2
Chorus x2
Tap to rate this tab
 
# A B C D E F G H I J K L M N O P Q R S T U V W X Y Z