Guitaretab - guitar tabs
Song name
# A B C D E F G H I J K L M N O P Q R S T U V W X Y Z

Sexton Martin - The Way I Am tab

----------------------------------------------------------------------------
			                    THE WAY I AM - Ingrid Michaelson
----------------------------------------------------------------------------

Tabbed by: crunch66
Note: This is the melody, not the guitar. It's my first tab, but I think it's pretty accurate...

Tuning: Standard

Verse 1
e|-------------------------------------------------------------------------|
B|---------------1----------4---4---1--------------------------------------|
G|---3---3---0-------0------------------0---0------------------------------|
D|-------------------------------------------------------------------------|
A|-------------------------------------------------------------------------|
E|-------------------------------------------------------------------------|
    If you were falling    Then I would catch you

e|-------------------------------------------------------------------------|
B|---------------1------4---4---1---3--------------------------------------|
G|---3---3---0-------------------------------------------------------------|
D|-------------------------------------------------------------------------|
A|-------------------------------------------------------------------------|
E|-------------------------------------------------------------------------|
    You need a light   I'd find a match

Chorus 1
e|-------------------------------------------------------------------------|
B|---0---3---5---7---5------3---5---7---5---3---3---3-----------1----------|
G|------------------------------------------------------3---0-------0------|
D|-------------------------------------------------------------------------|
A|-------------------------------------------------------------------------|
E|-------------------------------------------------------------------------|
   'Cause I- I- I- I        Lo- o-  o-  ove the way you say good morning

e|-------------------------------------------------------------------------|
B|---0---3---5---7---5------3---5---7---5---3----3-------------------------|
G|-------------------------------------------------------------------------|
D|-------------------------------------------------------------------------|
A|-------------------------------------------------------------------------|
E|-------------------------------------------------------------------------|
    And You- ou- ou- ou    Take me the way  I   am 

Verse 2
e|-------------------------------------------------------------------------|
B|---------------1----------4---4---1--------------------------------------|
G|---3---3---0-------0------------------0----------------------------------|
D|------------------------------------------3------------------------------|
A|-------------------------------------------------------------------------|
E|-------------------------------------------------------------------------|
     If you are chilly    Here take my sweater

e|-------------------------------------------------------------------------|
B|---------------1----------4---4---1---4---3------------------------------|
G|---3---3---0-------0-----------------------------------------------------|
D|-------------------------------------------------------------------------|
A|-------------------------------------------------------------------------|
E|-------------------------------------------------------------------------|
    Your head is achey    I'll make it better
[ Tab from: http://www.guitaretab.com/s/sexton-martin/17090.html ]
Chorus 2
e|-------------------------------------------------------------------------|
B|---0---3---5---7---5------3---5---7---5---3---3---3-----------1----------|
G|------------------------------------------------------3---0-------0------|
D|-------------------------------------------------------------------------|
A|-------------------------------------------------------------------------|
E|-------------------------------------------------------------------------|
    'Cause I- I- I- I       Lo- o- o- ove  the way you call me  baby

e|-------------------------------------------------------------------------|
B|---0---3---5---7---5------3---5---7---5---3----3-------------------------|
G|-------------------------------------------------------------------------|
D|-------------------------------------------------------------------------|
A|-------------------------------------------------------------------------|
E|-------------------------------------------------------------------------|
    And You- ou- ou- ou    Take me the way  I   am 

Verse 3
e|-------------------------------------------------------------------------|
B|---------------1----------4---4---1---------------1----------------------|
G|---3---3---0-------0------------------0---1---3-------0------------------|
D|-------------------------------------------------------------------------|
A|-------------------------------------------------------------------------|
E|-------------------------------------------------------------------------|
    I'd buy you rogain   When you start losing all your hair

e|-------------------------------------------------------------------------|
B|-----------1----------4---4---1---4---3----------------------------------|
G|---3---0-------0---------------------------------------------------------|
D|-------------------------------------------------------------------------|
A|-------------------------------------------------------------------------|
E|-------------------------------------------------------------------------|
    Sew on  patches     To all you te-ar 

Chorus 3/Outro
e|-------------------------------------------------------------------------|
B|---0---3---5---7---5------3---5---7---5---3---3---3-----------1----------|
G|------------------------------------------------------3---0-------0------|
D|-------------------------------------------------------------------------|
A|-------------------------------------------------------------------------|
E|-------------------------------------------------------------------------|
    'Cause I- I- I- I      Lo-ove you more than I could ever promise

e|-------------------------------------------------------------------------|
B|---0---3---5---7---5------3---5---7---5---3----3---2---------------------|
G|-------------------------------------------------------------------------|
D|-------------------------------------------------------------------------|
A|-------------------------------------------------------------------------|
E|-------------------------------------------------------------------------|
    And you- ou- ou- ou     Take me the way I   a-am

e|-------------------------------------------------------------------------|
B|---3---5---7---5------3---5---7---5---3----3---0-------------------------|
G|-------------------------------------------------------------------------|
D|-------------------------------------------------------------------------|
A|-------------------------------------------------------------------------|
E|-------------------------------------------------------------------------|
    You- ou- ou- ou     Take me the way I   a-am 

e|-------------------------------------------------------------------------|
B|---3---5---7---5------3---5---7---5---3----------------------------------|
G|----------------------------------------------2--------------------------|
D|-------------------------------------------------------------------------|
A|-------------------------------------------------------------------------|
E|-------------------------------------------------------------------------|
    You- ou- ou- ou    Take me the way  I   am.

============================================================================
Related for The Way I Am tab