Song name
# A B C D E F G H I J K L M N O P Q R S T U V W X Y Z

Shadows Chasing Ghosts - Sos tab

right i tabbed this song already today but deleted it by accident so i really cba going 
in to full lengh detail like i did plus its my first tab
would appreciate it if people could help me with the verses

Tunning C#

Intro

Chorus

E|------------------------------------------------------|
B|--3h5-t8---3h5-t7---3h5-t8---3h5-t10---3h5-t7---------|
G|------------------------------------------------------|
D|------------------------------------------------------|
A|------------------------------------------------------|
E|------------------------------------------------------|

other guitar comes in and plays

E|--------------------------|
B|--------------------------|
G|--------------------------|
D|--2--5--7-----------------|
A|--2--5--7-----------------|
E|--2--5--7-----------------|

Verse - not to sure on the riffs just sounds to me like palm mute 2

E|--------------------------|
B|--------------------------|
G|--------------------------|
D|--2--2--2-----------------|
A|--2--2--2-----------------|
E|--2--2--2-----------------|
    *  *  *

riff used in parts of the verse

E|--------------------------|
B|--------------------------|
G|--------------------------|
D|--------------------------|
A|--7-5-----7-5-------------|
E|------7-5-----7-5---------|

Pre Chorus


E|-5s7-5-7-8-7--------------|
B|--------------------------|
G|--------------------------|
D|--------------------------|
A|--------------------------|
E|--------------------------|

Chorus

E|--------------------------|
B|--------------------------|
G|--------------------------|
D|--2--5--7-----------------|
A|--2--5--7-----------------|
E|--2--5--7-----------------|

riff used in parts of the verse

E|--------------------------|
B|--------------------------|
G|--------------------------|
D|--------------------------|
A|--7-5-----7-5-------------|
E|------7-5-----7-5---------|

Chorus

E|--------------------------|
B|--------------------------|
G|--------------------------|
D|--2--5--7-----------------|
A|--2--5--7-----------------|
E|--2--5--7-----------------|


PALM MUTED part


E|----------------------------------|
B|----------------------------------|
G|----------------------------------|
D|--2-2-2-2-2-2-2-5-5-5-5-7-7-7-7---|
A|--2-2-2-2-2-2-2-5-5-5-5-7-7-7-7---|
E|--2-2-2-2-2-2-2-5-5-5-5-7-7-7-7---|
    * * * * * * * * * * * * * * *

E|--------------------5s7-5-7-8-7------|
B|-------------------------------------|
G|-------------------------------------|
D|-------------------------------------|
A|--7-5-----7-5------------------------|
E|------7-5-----7-5--------------------|


Chorus

E|--------------------------|
B|--------------------------|
G|--------------------------|
D|--2--5--7-----------------|
A|--2--5--7-----------------|
E|--2--5--7-----------------|

Outro

E|---------------------------|
B|---------------------------|
G|---------------------------|
D|-0-2-0-5-0-2---------------|
A|-0-2-0-5-0-2---------------|
E|-0-2-0-5-0-2---------------|
Tap to rate this tab
# A B C D E F G H I J K L M N O P Q R S T U V W X Y Z