Song name
# A B C D E F G H I J K L M N O P Q R S T U V W X Y Z

Shadows Fall - Inspiration On Demand tab

Shadows Fall 
Inspiration on Demand

Rhythm guitar(Matt Bachand)
(C G C F A D)

Intro
d:-------------------------------------------------------|
a:-------------------------------------------------------|
f:-------------------------------------------------------|
c:--------3-3-------5-5-7---------3-3--------------------|
g:-0-1-0--1-1--1-0--3-3-5--0-1-0--1-1--1-0-3-5-0-0-5-7---|
c:-0-1-0-------1-0---------0-1-0-------1-0-3-5-0-0-5-7---|

d:------------------------------------------|
a:-----------------------------13-----------|
f:-7-9-10-12-10-9-9-10-9-12-14----15-14-12--|
c:------------------------------------------|
g:------------------------------------------|
c:------------------------------------------|

verse

d:-------0-----------0----------0-----------5-------|
a:-----6---6-------6---6------6---6-------6---6-----|
f:---7-------7---7-------7--7-------7---7-------7---|
c:-0----------------------------------8-------------|
g:-------------8----------6-------------------------|
c:--------------------------------------------------|

d:-----------------|
a:-----------------|
f:-----------------|
c:-----------------|
g:-3-0-0-5-0-0-1-0-|
c:-3-0-0-5-0-0-1-0-|

chorus

d:-------------------------------------------------
a:-------------------------------------------------
f:-------------------------------------------------
c:-------------------------------------------------
g:-0-0-0-0-0-0-0-0-3-3-3-3-3-3-3-3-5-5-5-5-5-5-5-5-
c:-0-0-0-0-0-0-0-0-3-3-3-3-3-3-3-3-5-5-5-5-5-5-5-5-

d:-------------------
a:-------------------
f:-------------------
c:-7-7-7-7-7-7-7-7---
g:-5-5-5-5-5-5-5-5---
c:-5-5-5-5-5-5-5-5---

d:--------------------------------------------------|
a:--------------------------------------------------|
f:--------------------------------------------------|
c:--------------------------------------------------|
g:-0-0-0-0-0-0-0-0-3-3-3-3-3-3-3-3-1-1-1-1-1-1-1-1--|
c:-0-0-0-0-0-0-0-0-3-3-3-3-3-3-3-3-1-1-1-1-1-1-1-1--|

breakdown

d:---------------------------------------------------------------------|
a:---------------------------------------------------------------------|
f:---------------------------------------------------------------------|
c:---------------------------------------------------------------------|
g:-5-3-0-8-7-0-3-5-3-0-0-0-0-0-0-0-0-5-3-0-8-7-0-3-5-3-0-0-0-0-0-3-5-6-|
c:-5-3-0-8-7-0-3-5-3-0-0-0-0-0-0-0-0-5-3-0-8-7-0-3-5-3-0-0-0-0-0-3-5-6-|
Tap to rate this tab
 
# A B C D E F G H I J K L M N O P Q R S T U V W X Y Z