Song name
# A B C D E F G H I J K L M N O P Q R S T U V W X Y Z

Shadowy Men From A Shadowy Planet - Kids In The Hall Theme tab

Help us improve GuitareTab! Take a short survey!
Kids in the Hall Theme
Tabbed by Elliot

-------------------------|
------------0-3-0---0----|
-0---0------------2----0-|
---0---0-2-------------0-| x 4
-------------------------|
-------------------------|

G           
-3------------------|
-3------------------|
-0--0-4-2-0-------0-|
-0----------3-0-3---| x 3
-2------------------|
-3------------------|

-3---------0-----------|
-3-----------3-0-------|
-3-0-4-2-0-------2-0---|
-0-------------------0-|
-2---------------------|
-3---------------------|

D           Em
-2----------0-----------|
-3----------0-----------|
-2----------0-----------|
-0---0------2-----------| x 3
---2---2-0--2-----------|
------------0-2-3-5-----|


------------------------------|
------------------------------|
------------------------------|
------------------------------| x 3
--2-3-2-3-2-3-2-3-2-3-2-3-2---|
----------------------------3-|

-----------------------------------------3-|
-----------------------------------------3-|
-----------------------------------------0-|
-------------------------2-2-2-2-0-------0-|
--2-3-2-3-2-3-2-3-2-3-2------------2-0---2-|
-----------------------------------------3-|
Related for Kids In The Hall Theme tab