Song name
# A B C D E F G H I J K L M N O P Q R S T U V W X Y Z

Shaimus - All Of This tab

Title  : All of This
Artist : Hilera
Album  : Hilera

Intro

e|---------------------------------|
B|---------------------------------|
G|---5--7---5--7---5--7---5--5-----| repeat as needed
D|--------5-------------5----------|
A|---------------------------------|
E|---------------------------------|


Chorus

e|-------------------------------------------------------------------------|
B|-------------------------------------------------------------------------|
G|-------------------------------------------------------------------------|
D|-9-9-9-9-9-9-9-9-9-9-9-9-9-9-9-9---4-4-4-4-4-4-4-4-5-5-5-5-5-5-5---------|
A|-7-7-7-7-7-7-7-7-7-7-7-7-7-7-7-7---2-2-2-2-2-2-2-2-3-3-3-3-3-3-3---------|
E|-------------------------------------------------------------------------|

bali ang chords nyan parang E,Bm,C paki kapa nlang kung saan ung mga parts na un pero marami un eh kk...

for questions mail me at centigrade_90f@yahoo.com
Tap to rate this tab
# A B C D E F G H I J K L M N O P Q R S T U V W X Y Z