Song name
# A B C D E F G H I J K L M N O P Q R S T U V W X Y Z

Shakespears Sister - Hello Hello tab

"hello" by shakespears sister. 
tab by yuval sharon
play half a tune down.




E----------------------------------------------------------------------|
B--1010--88--10--10/12--1010-------------------------------------------|
G-----------------------------1212--12\11--11\9--7--7^9^7--7--9/11/12--|
D----------------------------------------------------------------------|
A----------------------------------------------------------------------|
E----------------------------------------------------------------------|

E--------------|-----------------------|-------------------------------|
B--------------|---------------15------|-----15------17--1515----------|
G--12--121212--|--14/16--1616------16--|-16------16------------16--16--|
D--------------|-----------------------|-------------------------------|
A--------------|-----------------------|-------------------------------|
E--------------|-----------------------|-------------------------------|

E---------------------------|-------------------------15--15/17--1515--|
B---------------------------|-------15------17--1515-------------------|
G--16\14--12--12--14/16\14--|---16------16-----------------------------|
D---------------------------|------------------------------------------|
A---------------------------|------------------------------------------|
E---------------------------|------------------------------------------|

E--15--15\14--14/12\10/12\10\9\8--8^10--10--8--7--8--8/10--------------|
B----------------------------------------------------------10b12r10----|
G----------------------------------------------------------------------|
D----------------------------------------------------------------------|
A----------------------------------------------------------------------|
E----------------------------------------------------------------------|

E-----------------------|------15------15------15------15------15------|
B-----8--10/15--15--15--|--15------15------15------15------15----------|
G--7--------------------|----------------------------------------------|
D-----------------------|----------------------------------------------|
A-----------------------|----------------------------------------------|
E-----------------------|----------------------------------------------|

Tap to rate this tab
 
# A B C D E F G H I J K L M N O P Q R S T U V W X Y Z